  0
SECTION
  2
HEADER
  9
$ACADVER
  1
AC1015
  9
$ACADMAINTVER
 70
    20
  9
$DWGCODEPAGE
  3
ANSI_932
  9
$INSBASE
 10
0.0
 20
0.0
 30
0.0
  9
$EXTMIN
 10
-170.0
 20
-600.0
 30
0.0
  9
$EXTMAX
 10
1005.0
 20
200.0
 30
0.0
  9
$LIMMIN
 10
0.0
 20
0.0
  9
$LIMMAX
 10
0.0
 20
0.0
  9
$ORTHOMODE
 70
     0
  9
$REGENMODE
 70
     1
  9
$FILLMODE
 70
     1
  9
$QTEXTMODE
 70
     0
  9
$MIRRTEXT
 70
     1
  9
$LTSCALE
 40
1.0
  9
$ATTMODE
 70
     1
  9
$TEXTSIZE
 40
2.5
  9
$TRACEWID
 40
1.0
  9
$TEXTSTYLE
  7
CONVERT
  9
$CLAYER
  8
0
  9
$CELTYPE
  6
BYLAYER
  9
$CECOLOR
 62
   256
  9
$CELTSCALE
 40
1.0
  9
$DISPSILH
 70
     0
  9
$DIMSCALE
 40
1.0
  9
$DIMASZ
 40
3.0
  9
$DIMEXO
 40
1.0
  9
$DIMDLI
 40
7.0
  9
$DIMRND
 40
0.0
  9
$DIMDLE
 40
0.0
  9
$DIMEXE
 40
2.0
  9
$DIMTP
 40
0.0
  9
$DIMTM
 40
0.0
  9
$DIMTXT
 40
2.799999999999999
  9
$DIMCEN
 40
0.0
  9
$DIMTSZ
 40
0.0
  9
$DIMTOL
 70
     0
  9
$DIMLIM
 70
     0
  9
$DIMTIH
 70
     0
  9
$DIMTOH
 70
     0
  9
$DIMSE1
 70
     0
  9
$DIMSE2
 70
     0
  9
$DIMTAD
 70
     1
  9
$DIMZIN
 70
     0
  9
$DIMBLK
  1

  9
$DIMASO
 70
     1
  9
$DIMSHO
 70
     1
  9
$DIMPOST
  1

  9
$DIMAPOST
  1

  9
$DIMALT
 70
     0
  9
$DIMALTD
 70
     4
  9
$DIMALTF
 40
0.0394
  9
$DIMLFAC
 40
1.0
  9
$DIMTOFL
 70
     1
  9
$DIMTVP
 40
0.0
  9
$DIMTIX
 70
     0
  9
$DIMSOXD
 70
     0
  9
$DIMSAH
 70
     1
  9
$DIMBLK1
  1
Open30
  9
$DIMBLK2
  1
Open30
  9
$DIMSTYLE
  2
STANDARD
  9
$DIMCLRD
 70
    44
  9
$DIMCLRE
 70
    44
  9
$DIMCLRT
 70
    44
  9
$DIMTFAC
 40
1.0
  9
$DIMGAP
 40
0.7
  9
$DIMJUST
 70
     0
  9
$DIMSD1
 70
     0
  9
$DIMSD2
 70
     0
  9
$DIMTOLJ
 70
     1
  9
$DIMTZIN
 70
     0
  9
$DIMALTZ
 70
     0
  9
$DIMALTTZ
 70
     0
  9
$DIMUPT
 70
     0
  9
$DIMDEC
 70
     3
  9
$DIMTDEC
 70
     3
  9
$DIMALTU
 70
     8
  9
$DIMALTTD
 70
     4
  9
$DIMTXSTY
  7
STANDARD
  9
$DIMAUNIT
 70
     0
  9
$DIMADEC
 70
     0
  9
$DIMALTRND
 40
0.0
  9
$DIMAZIN
 70
     0
  9
$DIMDSEP
 70
    46
  9
$DIMATFIT
 70
     0
  9
$DIMFRAC
 70
     0
  9
$DIMLDRBLK
  1
Open30
  9
$DIMLUNIT
 70
     2
  9
$DIMLWD
 70
    -2
  9
$DIMLWE
 70
    -2
  9
$DIMTMOVE
 70
     0
  9
$LUNITS
 70
     2
  9
$LUPREC
 70
     4
  9
$SKETCHINC
 40
1.0
  9
$FILLETRAD
 40
10.0
  9
$AUNITS
 70
     0
  9
$AUPREC
 70
     0
  9
$MENU
  1
.
  9
$ELEVATION
 40
0.0
  9
$PELEVATION
 40
0.0
  9
$THICKNESS
 40
0.0
  9
$LIMCHECK
 70
     0
  9
$CHAMFERA
 40
10.0
  9
$CHAMFERB
 40
10.0
  9
$CHAMFERC
 40
20.0
  9
$CHAMFERD
 40
0.0
  9
$SKPOLY
 70
     0
  9
$TDCREATE
 40
2451067.751276933
  9
$TDUCREATE
 40
2451067.376276933
  9
$TDUPDATE
 40
2454174.410120868
  9
$TDUUPDATE
 40
2454174.035120868
  9
$TDINDWG
 40
0.0072569676
  9
$TDUSRTIMER
 40
0.0072569676
  9
$USRTIMER
 70
     1
  9
$ANGBASE
 50
0.0
  9
$ANGDIR
 70
     0
  9
$PDMODE
 70
     1
  9
$PDSIZE
 40
0.0
  9
$PLINEWID
 40
0.0
  9
$SPLFRAME
 70
     0
  9
$SPLINETYPE
 70
     6
  9
$SPLINESEGS
 70
     8
  9
$HANDSEED
  5
4C9
  9
$SURFTAB1
 70
     6
  9
$SURFTAB2
 70
     6
  9
$SURFTYPE
 70
     6
  9
$SURFU
 70
     6
  9
$SURFV
 70
     6
  9
$UCSBASE
  2

  9
$UCSNAME
  2

  9
$UCSORG
 10
0.0
 20
0.0
 30
0.0
  9
$UCSXDIR
 10
1.0
 20
0.0
 30
0.0
  9
$UCSYDIR
 10
0.0
 20
1.0
 30
0.0
  9
$UCSORTHOREF
  2

  9
$UCSORTHOVIEW
 70
     0
  9
$UCSORGTOP
 10
0.0
 20
0.0
 30
0.0
  9
$UCSORGBOTTOM
 10
0.0
 20
0.0
 30
0.0
  9
$UCSORGLEFT
 10
0.0
 20
0.0
 30
0.0
  9
$UCSORGRIGHT
 10
0.0
 20
0.0
 30
0.0
  9
$UCSORGFRONT
 10
0.0
 20
0.0
 30
0.0
  9
$UCSORGBACK
 10
0.0
 20
0.0
 30
0.0
  9
$PUCSBASE
  2

  9
$PUCSNAME
  2

  9
$PUCSORG
 10
0.0
 20
0.0
 30
0.0
  9
$PUCSXDIR
 10
1.0
 20
0.0
 30
0.0
  9
$PUCSYDIR
 10
0.0
 20
1.0
 30
0.0
  9
$PUCSORTHOREF
  2

  9
$PUCSORTHOVIEW
 70
     0
  9
$PUCSORGTOP
 10
0.0
 20
0.0
 30
0.0
  9
$PUCSORGBOTTOM
 10
0.0
 20
0.0
 30
0.0
  9
$PUCSORGLEFT
 10
0.0
 20
0.0
 30
0.0
  9
$PUCSORGRIGHT
 10
0.0
 20
0.0
 30
0.0
  9
$PUCSORGFRONT
 10
0.0
 20
0.0
 30
0.0
  9
$PUCSORGBACK
 10
0.0
 20
0.0
 30
0.0
  9
$USERI1
 70
     0
  9
$USERI2
 70
     0
  9
$USERI3
 70
     0
  9
$USERI4
 70
     0
  9
$USERI5
 70
     0
  9
$USERR1
 40
0.0
  9
$USERR2
 40
0.0
  9
$USERR3
 40
0.0
  9
$USERR4
 40
0.0
  9
$USERR5
 40
0.0
  9
$WORLDVIEW
 70
     1
  9
$SHADEDGE
 70
     3
  9
$SHADEDIF
 70
    70
  9
$TILEMODE
 70
     1
  9
$MAXACTVP
 70
    48
  9
$PINSBASE
 10
0.0
 20
0.0
 30
0.0
  9
$PLIMCHECK
 70
     0
  9
$PEXTMIN
 10
1.000000000000000E+20
 20
1.000000000000000E+20
 30
1.000000000000000E+20
  9
$PEXTMAX
 10
-1.000000000000000E+20
 20
-1.000000000000000E+20
 30
-1.000000000000000E+20
  9
$PLIMMIN
 10
0.0
 20
0.0
  9
$PLIMMAX
 10
420.0
 20
297.0
  9
$UNITMODE
 70
     0
  9
$VISRETAIN
 70
     1
  9
$PLINEGEN
 70
     0
  9
$PSLTSCALE
 70
     1
  9
$TREEDEPTH
 70
  3020
  9
$CMLSTYLE
  2
STANDARD
  9
$CMLJUST
 70
     0
  9
$CMLSCALE
 40
20.0
  9
$PROXYGRAPHICS
 70
     1
  9
$MEASUREMENT
 70
     1
  9
$CELWEIGHT
370
    -1
  9
$ENDCAPS
280
     0
  9
$JOINSTYLE
280
     0
  9
$LWDISPLAY
290
     0
  9
$INSUNITS
 70
     0
  9
$HYPERLINKBASE
  1

  9
$STYLESHEET
  1

  9
$XEDIT
290
     1
  9
$CEPSNTYPE
380
     0
  9
$PSTYLEMODE
290
     1
  9
$FINGERPRINTGUID
  2
{881B1582-4BC7-11D3-AB9D-00805F8B7187}
  9
$VERSIONGUID
  2
{628CF984-B471-47A6-9C74-106A36C4597E}
  9
$EXTNAMES
290
     1
  9
$PSVPSCALE
 40
0.0
  9
$OLESTARTUP
290
     0
  0
ENDSEC
  0
SECTION
  2
CLASSES
  0
CLASS
  1
ACDBDICTIONARYWDFLT
  2
AcDbDictionaryWithDefault
  3
ObjectDBX Classes
 90
        0
280
     0
281
     0
  0
CLASS
  1
ACDBPLACEHOLDER
  2
AcDbPlaceHolder
  3
ObjectDBX Classes
 90
        0
280
     0
281
     0
  0
CLASS
  1
LAYOUT
  2
AcDbLayout
  3
ObjectDBX Classes
 90
        0
280
     0
281
     0
  0
CLASS
  1
TABLESTYLE
  2
AcDbTableStyle
  3
ObjectDBX Classes
 90
     2047
280
     0
281
     0
  0
CLASS
  1
ACME_DOCUMENT
  2
AcMeDbDoc
  3
AcMeServices
 90
        0
280
     0
281
     0
  0
CLASS
  1
AMGSETTINGSOBJ
  2
AmgSettingsObj
  3
"AcadM|Product Description: AutoCAD Mechanical 2000|Company: Autodesk"
 90
        0
280
     0
281
     0
  0
CLASS
  1
ACMESCOPE
  2
AcMeScope
  3
AcMeServices
 90
        0
280
     0
281
     0
  0
CLASS
  1
ACMECOMMANDHISTORY
  2
AcMeCommandHistory
  3
AcMeServices
 90
        0
280
     0
281
     0
  0
CLASS
  1
ACIMSYSVARMAN
  2
AcImSysVarManager
  3
AcMeServices
 90
        0
280
     0
281
     0
  0
CLASS
  1
ACIMINTSYSVAR
  2
AcImIntSysVar
  3
AcMeServices
 90
        0
280
     0
281
     0
  0
CLASS
  1
ACMEDRAWINGMAN
  2
AcMeDrawingMan
  3
AcMeServices
 90
        0
280
     0
281
     0
  0
CLASS
  1
ACMEVIEW
  2
AcMeView
  3
AcMeServices
 90
        0
280
     0
281
     0
  0
CLASS
  1
ACDBENTITYCACHE
  2
AcMeEntityCache
  3
AcMeServices
 90
        0
280
     0
281
     0
  0
CLASS
  1
GSMANAGER
  2
AcMeGSManager
  3
AcMeServices
 90
        0
280
     0
281
     0
  0
CLASS
  1
AMDTINTERNALREACTOR
  2
AmdtInternalReactor
  3
AcMeServices
 90
        0
280
     0
281
     0
  0
CLASS
  1
ACMESTATEMGR
  2
AcMeStateMgr
  3
AcMeServices
 90
        0
280
     0
281
     0
  0
CLASS
  1
ACGREFMASTER
  2
AcGrefMaster
  3
AcAttribServices
 90
        0
280
     0
281
     0
  0
CLASS
  1
AM_DRAWING_MGR
  2
AcDmDwgMgr
  3
AcMechDwgViewMgmt
 90
        0
280
     0
281
     0
  0
CLASS
  1
AM_DWG_DOCUMENT
  2
AcDmDwgDocument
  3
AcMechDwgViewMgmt
 90
        0
280
     0
281
     0
  0
CLASS
  1
AM_DWG_SHEET
  2
AcDmSheet
  3
AcMechDwgViewMgmt
 90
        0
280
     0
281
     0
  0
CLASS
  1
AM_VIEWDIMPARMAP
  2
AcDmViewDimParMap
  3
AcMechDwgViewMgmt
 90
        0
280
     0
281
     0
  0
CLASS
  1
ACIMREALSYSVAR
  2
AcImRealSysVar
  3
AcMeServices
 90
        0
280
     0
281
     0
  0
CLASS
  1
AM_DWGMGR_NAME
  2
AcDmDwgMgrName
  3
AcMechDwgViewMgmt
 90
        0
280
     0
281
     0
  0
CLASS
  1
ACME_DATABASE
  2
AcMeDbDatabase
  3
AcMeServices
 90
        0
280
     0
281
     0
  0
CLASS
  1
ACRFINSADJUSTERMGR
  2
AcRfInsAdjusterMgr
  3
AcMeServices
 90
        0
280
     0
281
     0
  0
CLASS
  1
ACGREFACADMASTER
  2
AcGrefacadMaster
  3
AcGrefServices
 90
        0
280
     0
281
     0
  0
CLASS
  1
AMDTMENUSTATEMGR
  2
AmdtMenuStateMgr
  3
McadcomServices
 90
        0
280
     0
281
     0
  0
CLASS
  1
AMDTMCOMMENUSTATE
  2
AmdtMcomMenuState
  3
McadcomServices
 90
        0
280
     0
281
     0
  0
CLASS
  1
AMIMASTER
  2
AmiMaster
  3
AmiServices
 90
        0
280
     0
281
     0
  0
CLASS
  1
MAPIAMMOUDLE
  2
MApiAmModule
  3
MApiAmServices
 90
        0
280
     0
281
     0
  0
CLASS
  1
ACIMSTRSYSVAR
  2
AcImStrSysVar
  3
AcMeServices
 90
        0
280
     0
281
     0
  0
CLASS
  1
AMDTADMENUSTATE
  2
AmdtAdMenuState
  3
DesignerServices
 90
        0
280
     0
281
     0
  0
CLASS
  1
ADAPPL
  2
AcAdAppl
  3
DesignerServices
 90
        0
280
     0
281
     0
  0
CLASS
  1
DEPMGR
  2
AcAdDepMgr
  3
DesignerServices
 90
        0
280
     0
281
     0
  0
CLASS
  1
PARAMMGR
  2
AcAdParamMgr
  3
DesignerServices
 90
        0
280
     0
281
     0
  0
CLASS
  1
PARAMSCOPE
  2
AcAdParamScope
  3
DesignerServices
 90
        0
280
     0
281
     0
  0
CLASS
  1
NAMEDAPPL
  2
AcAdNamedAppl
  3
DesignerServices
 90
        0
280
     0
281
     0
  0
CLASS
  1
AMDTDMMENUSTATE
  2
AmdtDmMenuState
  3
AcMechDwgViewMgmt
 90
        0
280
     0
281
     0
  0
CLASS
  1
AMDTAMMENUSTATE
  2
AmdtAmMenuState
  3
DesignerAssemblies
 90
        0
280
     0
281
     0
  0
CLASS
  1
ACAMPROJECT
  2
AcAmProject
  3
DesignerAssemblies
 90
        0
280
     0
281
     0
  0
CLASS
  1
ACAMGRCOMPDEF
  2
AcAmGrCompDef
  3
DesignerAssemblies
 90
        0
280
     0
281
     0
  0
CLASS
  1
ACCMCONTEXT
  2
AcCmContext
  3
DesignerAssemblies
 90
        0
280
     0
281
     0
  0
CLASS
  1
ACAMCOMPDEF
  2
AcAmCompDef
  3
DesignerAssemblies
 90
        0
280
     0
281
     0
  0
CLASS
  1
ACAMCOMPDEFMGR
  2
AcAmCompDefMgr
  3
DesignerAssemblies
 90
        0
280
     0
281
     0
  0
CLASS
  1
AMCONTEXTMGR
  2
AcAmContextMgr
  3
DesignerAssemblies
 90
        0
280
     0
281
     0
  0
CLASS
  1
ACAMCONTEXTMODELER
  2
AcAmContextModeler
  3
DesignerAssemblies
 90
        0
280
     0
281
     0
  0
CLASS
  1
ACMDATADICTIONARY
  2
AcmDataDictionary
  3
"AcmSymBB|Product Description: AutoCAD Mechanical 2004 DX|Company: Autodesk"
 90
        0
280
     0
281
     0
  0
CLASS
  1
CATALOGSTATE
  2
AcAmCatalogState
  3
DesignerAssemblies
 90
        0
280
     0
281
     0
  0
CLASS
  1
ACAMGRCOMPDEFSET
  2
AcAmGrCompDefSet
  3
DesignerAssemblies
 90
        0
280
     0
281
     0
  0
CLASS
  1
AMDTBROWSERDBTAB
  2
AmdtBrowserDbTab
  3
McadcomServices
 90
        0
280
     0
281
     0
  0
CLASS
  1
CBROWSERAPPOBJECT
  2
CBrowserAppObject
  3
McadcomServices
 90
        0
280
     0
281
     0
  0
CLASS
  1
DM_PLACEHOLDER
  2
AcDmSelsetPlaceholder
  3
AcMechDwgViewMgmt
 90
        0
280
     0
281
     0
  0
CLASS
  1
ACMSTANDARDISO
  2
AcmStandardISO
  3
"Amdt_StdImp|Product Description: AutoCAD Mechanical 2004 DX|Company: Autodesk"
 90
        0
280
     0
281
     0
  0
CLASS
  1
AMGOBJPROPCFG
  2
AmgObjPropCfg
  3
"AmgLay|Product Description: AutoCAD Mechanical 2000|Company: Autodesk"
 90
        1
280
     0
281
     0
  0
CLASS
  1
AMDTEDGESTANDARDISO13715
  2
AmdtEdgeStdISO13715
  3
"Amdt_StdImp|Product Description: AutoCAD Mechanical 2004 DX|Company: Autodesk"
 90
    32768
280
     0
281
     0
  0
CLASS
  1
ACMSURFSTANDARDISO
  2
AcmSurfTextStdISO
  3
"Amdt_StdImp|Product Description: AutoCAD Mechanical 2004 DX|Company: Autodesk"
 90
        0
280
     0
281
     0
  0
CLASS
  1
ACMFCFSTANDARDISO
  2
AcmFCFStdISO
  3
"Amdt_StdImp|Product Description: AutoCAD Mechanical 2004 DX|Company: Autodesk"
 90
        0
280
     0
281
     0
  0
CLASS
  1
ACMWELDSTANDARDISO
  2
AcmWeldingStdISO
  3
"Amdt_StdImp|Product Description: AutoCAD Mechanical 2004 DX|Company: Autodesk"
 90
        0
280
     0
281
     0
  0
CLASS
  1
ACMIDSTANDARDISO
  2
AcmIdStdISO
  3
"Amdt_StdImp|Product Description: AutoCAD Mechanical 2004 DX|Company: Autodesk"
 90
        0
280
     0
281
     0
  0
CLASS
  1
ACMDATUMSTANDARDISO
  2
AcmDatumStdISO
  3
"Amdt_StdImp|Product Description: AutoCAD Mechanical 2004 DX|Company: Autodesk"
 90
        0
280
     0
281
     0
  0
CLASS
  1
ACMBOMSTANDARDISO
  2
AcmBOMStdISO
  3
"Amdt_StdImp|Product Description: AutoCAD Mechanical 2004 DX|Company: Autodesk"
 90
        0
280
     0
281
     0
  0
CLASS
  1
ACMDETAILSTANDARDISO
  2
AmdtDetailSymStdISO
  3
"Amdt_StdImp|Product Description: AutoCAD Mechanical 2004 DX|Company: Autodesk"
 90
        0
280
     0
281
     0
  0
CLASS
  1
ACMSECTIONSTANDARDISO
  2
AmdtSectionSymStdISO
  3
"Amdt_StdImp|Product Description: AutoCAD Mechanical 2004 DX|Company: Autodesk"
 90
        0
280
     0
281
     0
  0
CLASS
  1
ACMCENTERLINESTANDARDISO
  2
AmdtCenterLineStdISO
  3
"Amdt_StdImp|Product Description: AutoCAD Mechanical 2004 DX|Company: Autodesk"
 90
        0
280
     0
281
     0
  0
CLASS
  1
ACMTHREADLINESTANDARDISO
  2
AmdtThreadLineStdISO
  3
"Amdt_StdImp|Product Description: AutoCAD Mechanical 2004 DX|Company: Autodesk"
 90
        0
280
     0
281
     0
  0
CLASS
  1
ACMNOTESTANDARDISO
  2
AmdtNoteStdISO
  3
"Amdt_StdImp|Product Description: AutoCAD Mechanical 2004 DX|Company: Autodesk"
 90
        0
280
     0
281
     0
  0
CLASS
  1
AMDTNOTETEMPLATEDB
  2
AmdtNoteTemplateDB
  3
AMDT_STDIMP_MODULE_NAME
 90
    32768
280
     0
281
     0
  0
CLASS
  1
ACAMGLAYSTD
  2
AcAmgLayStd
  3
"AcAmgLayStd|Product Description: AutoCAD Mechanical 2000|Company: Autodesk"
 90
        0
280
     0
281
     0
  0
CLASS
  1
ACAMGDIMSTD
  2
AcAmgDimStd
  3
"AcAmgDimStd|Product Description: AutoCAD Mechanical 2000|Company: Autodesk"
 90
        0
280
     0
281
     0
  0
CLASS
  1
ACAMGHOLECHARTSTDISO
  2
AcAmgHoleChartStdISO
  3
ACMSYMBB_MODULE_NAME
 90
    32768
280
     0
281
     0
  0
CLASS
  1
ACAMGTITLESTD
  2
AcAmgTitleStd
  3
"TITLEAPP"
 90
        0
280
     0
281
     0
  0
CLASS
  1
ACAMGFILTERDAT
  2
AcAmgFilterDat
  3
"AcadM|Product Description: AutoCAD Mechanical 2000|Company: Autodesk"
 90
    32768
280
     0
281
     0
  0
CLASS
  1
DICTIONARYVAR
  2
AcDbDictionaryVar
  3
ObjectDBX Classes
 90
        0
280
     0
281
     0
  0
CLASS
  1
ACMSTANDARDANSI
  2
AcmStandardANSI
  3
"Amdt_StdImp|Product Description: AutoCAD Mechanical 2004 DX|Company: Autodesk"
 90
        0
280
     0
281
     0
  0
CLASS
  1
ACMSURFSTANDARDANSI
  2
AcmSurfTextStdANSI
  3
"Amdt_StdImp|Product Description: AutoCAD Mechanical 2004 DX|Company: Autodesk"
 90
        0
280
     0
281
     0
  0
CLASS
  1
ACMFCFSTANDARDANSI
  2
AcmFCFStdANSI
  3
"Amdt_StdImp|Product Description: AutoCAD Mechanical 2004 DX|Company: Autodesk"
 90
        0
280
     0
281
     0
  0
CLASS
  1
ACMWELDSTANDARDANSI
  2
AcmWeldingStdANSI
  3
"Amdt_StdImp|Product Description: AutoCAD Mechanical 2004 DX|Company: Autodesk"
 90
        0
280
     0
281
     0
  0
CLASS
  1
ACMIDSTANDARDANSI
  2
AcmIdStdANSI
  3
"Amdt_StdImp|Product Description: AutoCAD Mechanical 2004 DX|Company: Autodesk"
 90
        0
280
     0
281
     0
  0
CLASS
  1
ACMDATUMSTANDARDANSI
  2
AcmDatumStdANSI
  3
"Amdt_StdImp|Product Description: AutoCAD Mechanical 2004 DX|Company: Autodesk"
 90
        0
280
     0
281
     0
  0
CLASS
  1
ACMBOMSTANDARDANSI
  2
AcmBOMStdANSI
  3
"Amdt_StdImp|Product Description: AutoCAD Mechanical 2004 DX|Company: Autodesk"
 90
        0
280
     0
281
     0
  0
CLASS
  1
ACMDETAILSTANDARDANSI
  2
AmdtDetailSymStdANSI
  3
"Amdt_StdImp|Product Description: AutoCAD Mechanical 2004 DX|Company: Autodesk"
 90
        0
280
     0
281
     0
  0
CLASS
  1
ACMSECTIONSTANDARDANSI
  2
AmdtSectionSymStdANSI
  3
"Amdt_StdImp|Product Description: AutoCAD Mechanical 2004 DX|Company: Autodesk"
 90
        0
280
     0
281
     0
  0
CLASS
  1
ACMCENTERLINESTANDARDANSI
  2
AmdtCenterLineStdANSI
  3
"Amdt_StdImp|Product Description: AutoCAD Mechanical 2004 DX|Company: Autodesk"
 90
        0
280
     0
281
     0
  0
CLASS
  1
ACMNOTESTANDARDANSI
  2
AmdtNoteStdANSI
  3
"Amdt_StdImp|Product Description: AutoCAD Mechanical 2004 DX|Company: Autodesk"
 90
        0
280
     0
281
     0
  0
CLASS
  1
ACMTHREADLINESTANDARDANSI
  2
AmdtThreadLineStdANSI
  3
"Amdt_StdImp|Product Description: AutoCAD Mechanical 2004 DX|Company: Autodesk"
 90
        0
280
     0
281
     0
  0
CLASS
  1
AMDTEDGESTANDARDISO
  2
AmdtEdgeStdISO
  3
"Amdt_StdImp|Product Description: AutoCAD Mechanical 2004 DX|Company: Autodesk"
 90
        0
280
     0
281
     0
  0
CLASS
  1
ACMSTANDARDJIS
  2
AcmStandardJIS
  3
"Amdt_StdImp|Product Description: AutoCAD Mechanical 2004 DX|Company: Autodesk"
 90
        0
280
     0
281
     0
  0
CLASS
  1
ACMSURFSTANDARDJIS
  2
AcmSurfTextStdJIS
  3
"Amdt_StdImp|Product Description: AutoCAD Mechanical 2004 DX|Company: Autodesk"
 90
        0
280
     0
281
     0
  0
CLASS
  1
ACMFCFSTANDARDJIS
  2
AcmFCFStdJIS
  3
"Amdt_StdImp|Product Description: AutoCAD Mechanical 2004 DX|Company: Autodesk"
 90
        0
280
     0
281
     0
  0
CLASS
  1
ACMWELDSTANDARDJIS
  2
AcmWeldingStdJIS
  3
"Amdt_StdImp|Product Description: AutoCAD Mechanical 2004 DX|Company: Autodesk"
 90
        0
280
     0
281
     0
  0
CLASS
  1
ACMIDSTANDARDJIS
  2
AcmIdStdJIS
  3
"Amdt_StdImp|Product Description: AutoCAD Mechanical 2004 DX|Company: Autodesk"
 90
        0
280
     0
281
     0
  0
CLASS
  1
ACMDATUMSTANDARDJIS
  2
AcmDatumStdJIS
  3
"Amdt_StdImp|Product Description: AutoCAD Mechanical 2004 DX|Company: Autodesk"
 90
        0
280
     0
281
     0
  0
CLASS
  1
ACMBOMSTANDARDJIS
  2
AcmBOMStdJIS
  3
"Amdt_StdImp|Product Description: AutoCAD Mechanical 2004 DX|Company: Autodesk"
 90
        0
280
     0
281
     0
  0
CLASS
  1
ACMDETAILSTANDARDJIS
  2
AmdtDetailSymStdJIS
  3
"Amdt_StdImp|Product Description: AutoCAD Mechanical 2004 DX|Company: Autodesk"
 90
        0
280
     0
281
     0
  0
CLASS
  1
ACMSECTIONSTANDARDJIS
  2
AmdtSectionSymStdJIS
  3
"Amdt_StdImp|Product Description: AutoCAD Mechanical 2004 DX|Company: Autodesk"
 90
        0
280
     0
281
     0
  0
CLASS
  1
ACMCENTERLINESTANDARDJIS
  2
AmdtCenterLineStdJIS
  3
"Amdt_StdImp|Product Description: AutoCAD Mechanical 2004 DX|Company: Autodesk"
 90
        0
280
     0
281
     0
  0
CLASS
  1
ACMTHREADLINESTANDARDJIS
  2
AmdtThreadLineStdJIS
  3
"Amdt_StdImp|Product Description: AutoCAD Mechanical 2004 DX|Company: Autodesk"
 90
        0
280
     0
281
     0
  0
CLASS
  1
ACMNOTESTANDARDJIS
  2
AmdtNoteStdJIS
  3
"Amdt_StdImp|Product Description: AutoCAD Mechanical 2004 DX|Company: Autodesk"
 90
        0
280
     0
281
     0
  0
ENDSEC
  0
SECTION
  2
TABLES
  0
TABLE
  2
VPORT
  5
8
330
0
100
AcDbSymbolTable
 70
     3
  0
VPORT
  5
4C3
330
8
100
AcDbSymbolTableRecord
100
AcDbViewportTableRecord
  2
*Active
 70
     0
 10
0.0
 20
0.0
 11
1.0
 21
1.0
 12
417.5000027357601
 22
-132.8891501469491
 13
0.0
 23
0.0
 14
10.0
 24
10.0
 15
10.0
 25
10.0
 16
0.0
 26
0.0
 36
1.0
 17
0.0
 27
0.0
 37
0.0
 40
940.3855469959962
 41
1.285904255319148
 42
50.0
 43
0.0
 44
0.0
 50
0.0
 51
0.0
 71
     0
 72
   100
 73
     1
 74
     1
 75
     0
 76
     0
 77
     0
 78
     0
281
     0
 65
     1
110
0.0
120
0.0
130
0.0
111
1.0
121
0.0
131
0.0
112
0.0
122
1.0
132
0.0
 79
     0
146
0.0
  0
ENDTAB
  0
TABLE
  2
LTYPE
  5
5
330
0
100
AcDbSymbolTable
 70
    22
  0
LTYPE
  5
12
330
5
100
AcDbSymbolTableRecord
100
AcDbLinetypeTableRecord
  2
BYBLOCK
 70
     0
  3

 72
    65
 73
     0
 40
0.0
  0
LTYPE
  5
13
330
5
100
AcDbSymbolTableRecord
100
AcDbLinetypeTableRecord
  2
BYLAYER
 70
     0
  3

 72
    65
 73
     0
 40
0.0
  0
LTYPE
  5
14
330
5
100
AcDbSymbolTableRecord
100
AcDbLinetypeTableRecord
  2
CONTINUOUS
 70
     0
  3
Solid line
 72
    65
 73
     0
 40
0.0
  0
LTYPE
  5
22
330
5
100
AcDbSymbolTableRecord
100
AcDbLinetypeTableRecord
  2
CENTER
 70
     0
  3
__ . __
 72
    65
 73
     4
 40
7.0
 49
4.0
 74
     0
 49
-1.0
 74
     0
 49
1.0
 74
     0
 49
-1.0
 74
     0
  0
LTYPE
  5
23
330
5
100
AcDbSymbolTableRecord
100
AcDbLinetypeTableRecord
  2
CENTER2
 70
     0
  3
Center (.5x) ___ _ ___ _ ___ _ ___ _ ___ _ ___
 72
    65
 73
     4
 40
28.575
 49
19.05
 74
     0
 49
-3.174999999999999
 74
     0
 49
3.174999999999999
 74
     0
 49
-3.174999999999999
 74
     0
  0
LTYPE
  5
24
330
5
100
AcDbSymbolTableRecord
100
AcDbLinetypeTableRecord
  2
PHANTOM
 70
     0
  3
Phantom ______  __  __  ______  __  __  ______
 72
    65
 73
     6
 40
63.5
 49
31.75
 74
     0
 49
-6.349999999999999
 74
     0
 49
6.349999999999999
 74
     0
 49
-6.349999999999999
 74
     0
 49
6.349999999999999
 74
     0
 49
-6.349999999999999
 74
     0
  0
LTYPE
  5
25
330
5
100
AcDbSymbolTableRecord
100
AcDbLinetypeTableRecord
  2
PHANTOM2
 70
     0
  3
Phantom (.5x) ___ _ _ ___ _ _ ___ _ _ ___ _ _
 72
    65
 73
     6
 40
31.75
 49
15.875
 74
     0
 49
-3.174999999999999
 74
     0
 49
3.174999999999999
 74
     0
 49
-3.174999999999999
 74
     0
 49
3.174999999999999
 74
     0
 49
-3.174999999999999
 74
     0
  0
LTYPE
  5
26
330
5
100
AcDbSymbolTableRecord
100
AcDbLinetypeTableRecord
  2
DASHED
 70
     0
  3
Dashed __ __ __ __ __ __ __ __ __ __ __ __ __ _
 72
    65
 73
     2
 40
19.05
 49
12.7
 74
     0
 49
-6.349999999999999
 74
     0
  0
LTYPE
  5
27
330
5
100
AcDbSymbolTableRecord
100
AcDbLinetypeTableRecord
  2
DASHED2
 70
     0
  3
Dashed (.5x) _ _ _ _ _ _ _ _ _ _ _ _ _ _ _ _ _
 72
    65
 73
     2
 40
9.524999999999998
 49
6.349999999999999
 74
     0
 49
-3.174999999999999
 74
     0
  0
LTYPE
  5
251
330
5
100
AcDbSymbolTableRecord
100
AcDbLinetypeTableRecord
  2
HIDDEN
 70
     0
  3
Hidden __ __ __ __ __ __ __ __ __ __ __ __ __ _
 72
    65
 73
     2
 40
9.524999999999998
 49
6.349999999999999
 74
     0
 49
-3.174999999999999
 74
     0
  0
LTYPE
  5
285
330
5
100
AcDbSymbolTableRecord
100
AcDbLinetypeTableRecord
  2
AM_ISO02W050
 70
     0
  3
__ __ __ __ __ __ __ __ __ __ __ __ __ __ __
 72
    65
 73
     2
 40
7.5
 49
6.0
 74
     0
 49
-1.5
 74
     0
  0
LTYPE
  5
286
330
5
100
AcDbSymbolTableRecord
100
AcDbLinetypeTableRecord
  2
AM_ISO08W050
 70
     0
  3
____ . ____ . ____ . ____ . ____ . ____ . ____
 72
    65
 73
     4
 40
18.0
 49
12.0
 74
     0
 49
-1.5
 74
     0
 49
3.0
 74
     0
 49
-1.5
 74
     0
  0
LTYPE
  5
287
330
5
100
AcDbSymbolTableRecord
100
AcDbLinetypeTableRecord
  2
AM_ISO09W050
 70
     0
  3
_____ . . _____ . . _____ . . ____ .. ____
 72
    65
 73
     6
 40
22.5
 49
12.0
 74
     0
 49
-1.5
 74
     0
 49
3.0
 74
     0
 49
-1.5
 74
     0
 49
3.0
 74
     0
 49
-1.5
 74
     0
  0
LTYPE
  5
288
330
5
100
AcDbSymbolTableRecord
100
AcDbLinetypeTableRecord
  2
Amconstr
 70
     0
  3
_______________________
 72
    65
 73
     2
 40
9999.0
 49
9999.0
 74
     0
 49
0.0
 74
     0
  0
LTYPE
  5
289
330
5
100
AcDbSymbolTableRecord
100
AcDbLinetypeTableRecord
  2
AM_ISO08W050x2
 70
     0
  3
__ . __ . __ . __ . __ . __
 72
    65
 73
     4
 40
9.0
 49
6.0
 74
     0
 49
-0.75
 74
     0
 49
1.5
 74
     0
 49
-0.75
 74
     0
  0
LTYPE
  5
28A
330
5
100
AcDbSymbolTableRecord
100
AcDbLinetypeTableRecord
  2
AM_ISO02W050x2
 70
     0
  3
 _ _ _ _ _ _ _ _ _ _ _ _
 72
    65
 73
     2
 40
3.75
 49
3.0
 74
     0
 49
-0.75
 74
     0
  0
LTYPE
  5
28D
330
5
100
AcDbSymbolTableRecord
100
AcDbLinetypeTableRecord
  2
Amzigzag
 70
     0
  3
/\/-/\/-/\/-/\/-/\/-/\/
 72
    65
 73
     2
 40
11.0001
 49
0.0001
 74
     4
 75
   135
340
21
 46
0.04
 50
0.0
 44
0.0
 45
0.0
 49
-11.0
 74
     0
  0
LTYPE
  5
29C
330
5
100
AcDbSymbolTableRecord
100
AcDbLinetypeTableRecord
  2
ACISOWELD
 70
     0
  3
_ _ _ _ _
 72
    65
 73
     2
 40
2.0
 49
2.0
 74
     0
 49
-1.0
 74
     0
  0
LTYPE
  5
29D
330
5
100
AcDbSymbolTableRecord
100
AcDbLinetypeTableRecord
  2
ACISOTGB
 70
     0
  3
__ . . __ . .
 72
    65
 73
     6
 40
9.0
 49
4.0
 74
     0
 49
-1.0
 74
     0
 49
1.0
 74
     0
 49
-1.0
 74
     0
 49
1.0
 74
     0
 49
-1.0
 74
     0
  0
LTYPE
  5
29E
330
5
100
AcDbSymbolTableRecord
100
AcDbLinetypeTableRecord
  2
ACISOTGL
 70
     0
  3
_ _ _ _ _
 72
    65
 73
     2
 40
3.0
 49
2.0
 74
     0
 49
-1.0
 74
     0
  0
LTYPE
  5
359
330
5
100
AcDbSymbolTableRecord
100
AcDbLinetypeTableRecord
  2
ACANSTGB
 70
     0
  3
__ . . __ . .
 72
    65
 73
     6
 40
0.35433070866
 49
0.15748031496
 74
     0
 49
-0.03937007874
 74
     0
 49
0.03937007874
 74
     0
 49
-0.03937007874
 74
     0
 49
0.03937007874
 74
     0
 49
-0.03937007874
 74
     0
  0
LTYPE
  5
35A
330
5
100
AcDbSymbolTableRecord
100
AcDbLinetypeTableRecord
  2
ACANSTGL
 70
     0
  3
_ _ _ _ _
 72
    65
 73
     2
 40
0.11811023622
 49
0.07874015748
 74
     0
 49
-0.03937007874
 74
     0
  0
LTYPE
  5
394
330
5
100
AcDbSymbolTableRecord
100
AcDbLinetypeTableRecord
  2
ACJISTGB
 70
     0
  3
__ . . __ . .
 72
    65
 73
     6
 40
9.0
 49
4.0
 74
     0
 49
-1.0
 74
     0
 49
1.0
 74
     0
 49
-1.0
 74
     0
 49
1.0
 74
     0
 49
-1.0
 74
     0
  0
LTYPE
  5
395
330
5
100
AcDbSymbolTableRecord
100
AcDbLinetypeTableRecord
  2
ACJISTGL
 70
     0
  3
_ _ _ _ _
 72
    65
 73
     2
 40
3.0
 49
2.0
 74
     0
 49
-1.0
 74
     0
  0
ENDTAB
  0
TABLE
  2
LAYER
  5
2
330
0
100
AcDbSymbolTable
 70
     4
  0
LAYER
  5
E
330
2
100
AcDbSymbolTableRecord
100
AcDbLayerTableRecord
  2
0
 70
     0
 62
     7
  6
CONTINUOUS
370
    -3
390
5D
  0
LAYER
  5
74
330
2
100
AcDbSymbolTableRecord
100
AcDbLayerTableRecord
  2
Defpoints
 70
     0
 62
     7
  6
CONTINUOUS
290
     0
370
    -3
390
5D
  0
LAYER
  5
75
330
2
100
AcDbSymbolTableRecord
100
AcDbLayerTableRecord
  2
PV0001_1
 70
     0
 62
     7
  6
CONTINUOUS
370
    -3
390
5D
  0
LAYER
  5
3A6
330
2
100
AcDbSymbolTableRecord
100
AcDbLayerTableRecord
  2
outline
 70
     0
 62
     4
  6
CONTINUOUS
370
    50
390
5D
  0
ENDTAB
  0
TABLE
  2
STYLE
  5
3
330
0
100
AcDbSymbolTable
 70
    11
  0
STYLE
  5
F
330
3
100
AcDbSymbolTableRecord
100
AcDbTextStyleTableRecord
  2
STANDARD
 70
     0
 40
0.0
 41
1.0
 50
0.0
 71
     0
 42
2.5
  3
monotxt.shx
  4
extfont.shx
  0
STYLE
  5
21
330
3
100
AcDbSymbolTableRecord
100
AcDbTextStyleTableRecord
  2

 70
     1
 40
0.0
 41
1.0
 50
0.0
 71
     0
 42
2.5
  3
ltypeshp.shx
  4

  0
STYLE
  5
30
330
3
100
AcDbSymbolTableRecord
100
AcDbTextStyleTableRecord
  2
DIM
 70
     0
 40
0.0
 41
1.0
 50
0.0
 71
     0
 42
2.5
  3
monotxt.shx
  4
extfont.shx
  0
STYLE
  5
31
330
3
100
AcDbSymbolTableRecord
100
AcDbTextStyleTableRecord
  2
CONVERT
 70
     0
 40
0.0
 41
1.0
 50
0.0
 71
     0
 42
2.5
  3
monotxt.shx
  4
extfont.shx
  0
STYLE
  5
28C
330
3
100
AcDbSymbolTableRecord
100
AcDbTextStyleTableRecord
  2

 70
     1
 40
0.0
 41
1.0
 50
0.0
 71
     0
 42
2.5
  3
genltshp.shx
  4

  0
STYLE
  5
28E
330
3
100
AcDbSymbolTableRecord
100
AcDbTextStyleTableRecord
  2
ACISOTS
 70
     0
 40
1.0
 41
1.0
 50
0.0
 71
     0
 42
2.5
  3
isocp.shx
  4
extfont.shx
  0
STYLE
  5
29B
330
3
100
AcDbSymbolTableRecord
100
AcDbTextStyleTableRecord
  2
ACISOGDT
 70
     0
 40
0.0
 41
1.0
 50
0.0
 71
     0
 42
2.5
  3
amgdt.shx
  4

  0
STYLE
  5
352
330
3
100
AcDbSymbolTableRecord
100
AcDbTextStyleTableRecord
  2
ACANSTS
 70
     0
 40
1.0
 41
1.0
 50
0.0
 71
     0
 42
5.0
  3
romans.shx
  4
extfont.shx
  0
STYLE
  5
355
330
3
100
AcDbSymbolTableRecord
100
AcDbTextStyleTableRecord
  2
ACANSGDT
 70
     0
 40
0.0
 41
1.0
 50
0.0
 71
     0
 42
5.0
  3
amgdtans.shx
  4

  0
STYLE
  5
38D
330
3
100
AcDbSymbolTableRecord
100
AcDbTextStyleTableRecord
  2
ACJISTS
 70
     0
 40
1.0
 41
1.0
 50
0.0
 71
     0
 42
2.5
  3
isocp.shx
  4
bigfont.shx
  0
STYLE
  5
390
330
3
100
AcDbSymbolTableRecord
100
AcDbTextStyleTableRecord
  2
ACJISGDT
 70
     0
 40
0.0
 41
1.0
 50
0.0
 71
     0
 42
2.5
  3
amgdt.shx
  4

  0
ENDTAB
  0
TABLE
  2
VIEW
  5
6
330
0
100
AcDbSymbolTable
 70
     0
  0
ENDTAB
  0
TABLE
  2
UCS
  5
7
330
0
100
AcDbSymbolTable
 70
     0
  0
ENDTAB
  0
TABLE
  2
APPID
  5
9
330
0
100
AcDbSymbolTable
 70
    28
  0
APPID
  5
10
330
9
100
AcDbSymbolTableRecord
100
AcDbRegAppTableRecord
  2
ACAD
 70
     0
  0
APPID
  5
224
330
9
100
AcDbSymbolTableRecord
100
AcDbRegAppTableRecord
  2
MCAD_NO_VIS
 70
     0
  0
APPID
  5
225
330
9
100
AcDbSymbolTableRecord
100
AcDbRegAppTableRecord
  2
ACAD_TEMP_GRAPHIC
 70
     0
  0
APPID
  5
253
330
9
100
AcDbSymbolTableRecord
100
AcDbRegAppTableRecord
  2
AD_DRAW
 70
     0
  0
APPID
  5
256
330
9
100
AcDbSymbolTableRecord
100
AcDbRegAppTableRecord
  2
ACATTRIBSERVICES
 70
     0
  0
APPID
  5
276
330
9
100
AcDbSymbolTableRecord
100
AcDbRegAppTableRecord
  2
DESIGNERASSEMBLIES
 70
     0
  0
APPID
  5
27C
330
9
100
AcDbSymbolTableRecord
100
AcDbRegAppTableRecord
  2
ACADM_DIM_EDIT
 70
     0
  0
APPID
  5
27D
330
9
100
AcDbSymbolTableRecord
100
AcDbRegAppTableRecord
  2
AMDT_DM_ADJ
 70
     0
  0
APPID
  5
2AA
330
9
100
AcDbSymbolTableRecord
100
AcDbRegAppTableRecord
  2
ACAD_DSTYLE_DIMARC_LENGTH_SYMBOL
 70
     0
  0
APPID
  5
2AB
330
9
100
AcDbSymbolTableRecord
100
AcDbRegAppTableRecord
  2
ACAD_DSTYLE_DIMJOGGED_JOGANGLE_SYMBOL
 70
     0
  0
APPID
  5
2E6
330
9
100
AcDbSymbolTableRecord
100
AcDbRegAppTableRecord
  2
GENIUS_GENREC_14
 70
     0
  0
APPID
  5
2E7
330
9
100
AcDbSymbolTableRecord
100
AcDbRegAppTableRecord
  2
GENIUS_GENODEF_13
 70
     0
  0
APPID
  5
2E8
330
9
100
AcDbSymbolTableRecord
100
AcDbRegAppTableRecord
  2
GENIUS_GENOBJ-N-REC_13
 70
     0
  0
APPID
  5
2E9
330
9
100
AcDbSymbolTableRecord
100
AcDbRegAppTableRecord
  2
GENIUS_GENOBJ-N-CEN_13
 70
     0
  0
APPID
  5
2EA
330
9
100
AcDbSymbolTableRecord
100
AcDbRegAppTableRecord
  2
GENIUS_GENDTOL_13
 70
     0
  0
APPID
  5
2EB
330
9
100
AcDbSymbolTableRecord
100
AcDbRegAppTableRecord
  2
GENIUS_GENDIMSH_14
 70
     0
  0
APPID
  5
2EC
330
9
100
AcDbSymbolTableRecord
100
AcDbRegAppTableRecord
  2
GENIUS_GENFIL_13
 70
     0
  0
APPID
  5
2ED
330
9
100
AcDbSymbolTableRecord
100
AcDbRegAppTableRecord
  2
GENIUS_GENOBJ-N-CHA_13
 70
     0
  0
APPID
  5
2EE
330
9
100
AcDbSymbolTableRecord
100
AcDbRegAppTableRecord
  2
GENIUS_GENOLIS_13
 70
     0
  0
APPID
  5
2EF
330
9
100
AcDbSymbolTableRecord
100
AcDbRegAppTableRecord
  2
GENIUS_GENOENT_13
 70
     0
  0
APPID
  5
2F0
330
9
100
AcDbSymbolTableRecord
100
AcDbRegAppTableRecord
  2
GENIUS_GENOREF_13
 70
     0
  0
APPID
  5
2F1
330
9
100
AcDbSymbolTableRecord
100
AcDbRegAppTableRecord
  2
GENIUS_GENOBJ-N-CRS_13
 70
     0
  0
APPID
  5
2F2
330
9
100
AcDbSymbolTableRecord
100
AcDbRegAppTableRecord
  2
GENIUS_GENOBJ-N-TIT_13
 70
     0
  0
APPID
  5
2F3
330
9
100
AcDbSymbolTableRecord
100
AcDbRegAppTableRecord
  2
GENIUS_GENTITLE_13
 70
     0
  0
APPID
  5
2F4
330
9
100
AcDbSymbolTableRecord
100
AcDbRegAppTableRecord
  2
GENIUS_GENSCREG_15
 70
     0
  0
APPID
  5
2F5
330
9
100
AcDbSymbolTableRecord
100
AcDbRegAppTableRecord
  2
GENIUS_GENOBJ-N-SDF_13
 70
     0
  0
APPID
  5
2F6
330
9
100
AcDbSymbolTableRecord
100
AcDbRegAppTableRecord
  2
GENIUS_GENTRA_14
 70
     0
  0
APPID
  5
2F7
330
9
100
AcDbSymbolTableRecord
100
AcDbRegAppTableRecord
  2
GENIUS_GENOBJ-N-FIL_13
 70
     0
  0
ENDTAB
  0
TABLE
  2
DIMSTYLE
  5
A
330
0
100
AcDbSymbolTable
 70
    28
100
AcDbDimStyleTable
 71
     0
  0
DIMSTYLE
105
1D
330
A
100
AcDbSymbolTableRecord
100
AcDbDimStyleTableRecord
  2
STANDARD
 70
     0
 41
3.0
 42
1.0
 43
7.0
 44
2.0
 73
     0
 74
     0
 77
     1
140
2.799999999999999
141
0.0
143
0.0394
147
0.7
171
     4
172
     1
173
     1
176
    44
177
    44
178
    44
271
     3
272
     3
273
     8
274
     4
289
     0
340
F
341
32
343
32
344
32
  0
DIMSTYLE
105
2A9
330
A
100
AcDbSymbolTableRecord
100
AcDbDimStyleTableRecord
  2
AM_ISO
 70
     0
  4
"
 41
2.5
 42
1.0
 43
10.0
 44
1.0
 47
0.1
 48
0.1
 73
     0
 74
     0
 77
     1
 78
     8
 79
     2
140
3.5
141
0.0
143
0.0393701
146
0.71
147
1.5
172
     1
176
   256
177
   256
178
     2
271
     2
272
     3
274
     4
283
     0
284
     8
340
F
371
    -1
372
    -1
1001
ACAD_DSTYLE_DIMARC_LENGTH_SYMBOL
1070
   379
1070
     1
1001
ACAD_DSTYLE_DIMJOGGED_JOGANGLE_SYMBOL
1070
   384
1040
0.7853981633974483
  0
DIMSTYLE
105
2B2
330
A
100
AcDbSymbolTableRecord
100
AcDbDimStyleTableRecord
  2
AM_ISO$3
 70
     0
  4
"
 41
2.5
 42
1.0
 43
10.0
 44
1.0
 47
0.1
 48
0.1
 73
     0
 77
     1
 78
     8
 79
     2
140
3.5
141
0.0
143
0.0393701
146
0.71
147
1.5
176
   256
177
   256
178
     2
271
     2
272
     3
274
     4
283
     0
284
     8
288
     1
289
     0
340
F
371
    -1
372
    -1
1001
ACAD_DSTYLE_DIMARC_LENGTH_SYMBOL
1070
   379
1070
     1
1001
ACAD_DSTYLE_DIMJOGGED_JOGANGLE_SYMBOL
1070
   384
1040
0.7853981633974483
  0
DIMSTYLE
105
2B5
330
A
100
AcDbSymbolTableRecord
100
AcDbDimStyleTableRecord
  2
AM_ISO$4
 70
     0
  4
"
 41
2.5
 42
1.0
 43
10.0
 44
1.0
 47
0.1
 48
0.1
 73
     0
 77
     1
 78
     8
 79
     2
140
3.5
141
0.0
143
0.0393701
146
0.71
147
1.5
176
   256
177
   256
178
     2
271
     2
272
     3
274
     4
283
     0
284
     8
288
     1
289
     0
340
F
371
    -1
372
    -1
1001
ACAD_DSTYLE_DIMARC_LENGTH_SYMBOL
1070
   379
1070
     1
1001
ACAD_DSTYLE_DIMJOGGED_JOGANGLE_SYMBOL
1070
   384
1040
0.7853981633974483
  0
DIMSTYLE
105
2B8
330
A
100
AcDbSymbolTableRecord
100
AcDbDimStyleTableRecord
  2
AM_ISO$6
 70
     0
  4
"
 41
2.5
 42
1.0
 43
10.0
 44
1.0
 47
0.1
 48
0.1
 73
     0
 74
     0
 78
     8
 79
     2
140
3.5
141
0.0
143
0.0393701
146
0.71
147
1.5
172
     1
176
   256
177
   256
178
     2
271
     2
272
     3
274
     4
283
     0
284
     8
340
F
371
    -1
372
    -1
1001
ACAD_DSTYLE_DIMARC_LENGTH_SYMBOL
1070
   379
1070
     1
1001
ACAD_DSTYLE_DIMJOGGED_JOGANGLE_SYMBOL
1070
   384
1040
0.7853981633974483
  0
DIMSTYLE
105
2BB
330
A
100
AcDbSymbolTableRecord
100
AcDbDimStyleTableRecord
  2
AM_ISO$7
 70
     0
  4
"
 41
2.5
 42
1.0
 43
10.0
 44
1.0
 47
0.1
 48
0.1
 73
     0
 74
     0
 77
     1
 78
     8
 79
     2
140
5.0
141
0.0
143
0.0393701
146
0.71
147
1.5
172
     1
176
   256
177
   256
178
     2
271
     2
272
     3
274
     4
283
     0
284
     8
340
F
371
    -1
372
    -1
1001
ACAD_DSTYLE_DIMARC_LENGTH_SYMBOL
1070
   379
1070
     1
1001
ACAD_DSTYLE_DIMJOGGED_JOGANGLE_SYMBOL
1070
   384
1040
0.7853981633974483
  0
DIMSTYLE
105
2BE
330
A
100
AcDbSymbolTableRecord
100
AcDbDimStyleTableRecord
  2
AM_ISO$SF
 70
     0
  4
"
 41
2.5
 42
1.0
 43
10.0
 44
1.0
 47
0.1
 48
0.1
 73
     0
 74
     0
 75
     1
 76
     1
 77
     1
 78
     8
 79
     2
140
3.5
141
0.0
143
0.0393701
146
0.71
147
1.5
172
     1
176
   256
177
   256
178
     2
271
     2
272
     3
274
     4
283
     0
284
     8
340
F
371
    -1
372
    -1
1001
ACAD_DSTYLE_DIMARC_LENGTH_SYMBOL
1070
   379
1070
     1
1001
ACAD_DSTYLE_DIMJOGGED_JOGANGLE_SYMBOL
1070
   384
1040
0.7853981633974483
  0
DIMSTYLE
105
2C5
330
A
100
AcDbSymbolTableRecord
100
AcDbDimStyleTableRecord
  2
AM_ISO$SH
 70
     0
  4
"
 41
2.5
 42
1.0
 43
10.0
 44
1.0
 47
0.1
 48
0.1
 73
     0
 74
     0
 75
     1
 76
     1
 77
     1
 78
     8
 79
     2
140
3.5
141
0.0
143
0.0393701
144
2.0
146
0.71
147
1.5
172
     1
173
     1
176
   256
177
   256
178
     2
271
     2
272
     3
274
     4
283
     0
284
     8
340
F
343
2BF
371
    -1
372
    -1
1001
ACAD_DSTYLE_DIMARC_LENGTH_SYMBOL
1070
   379
1070
     1
1001
ACAD_DSTYLE_DIMJOGGED_JOGANGLE_SYMBOL
1070
   384
1040
0.7853981633974483
  0
DIMSTYLE
105
362
330
A
100
AcDbSymbolTableRecord
100
AcDbDimStyleTableRecord
  2
AM_ANSI
 70
     0
  4
mm
 41
0.1
 42
0.05
 43
0.5
 44
0.1
 47
0.1
 48
0.1
 78
     7
 79
     2
140
0.12
141
0.0
146
0.71
147
0.06
176
   256
177
   256
178
     2
274
     4
340
F
371
    -1
372
    -1
  0
DIMSTYLE
105
363
330
A
100
AcDbSymbolTableRecord
100
AcDbDimStyleTableRecord
  2
AM_ANSI$3
 70
     0
  4
mm
 41
0.1
 42
0.05
 43
0.5
 44
0.1
 47
0.1
 48
0.1
 78
     7
 79
     2
140
0.12
141
0.0
146
0.71
147
0.06
176
   256
177
   256
178
     2
274
     4
288
     1
289
     0
340
F
371
    -1
372
    -1
  0
DIMSTYLE
105
364
330
A
100
AcDbSymbolTableRecord
100
AcDbDimStyleTableRecord
  2
AM_ANSI$4
 70
     0
  4
mm
 41
0.1
 42
0.05
 43
0.5
 44
0.1
 47
0.1
 48
0.1
 78
     7
 79
     2
140
0.12
141
0.0
146
0.71
147
0.06
176
   256
177
   256
178
     2
274
     4
288
     1
289
     0
340
F
371
    -1
372
    -1
  0
DIMSTYLE
105
365
330
A
100
AcDbSymbolTableRecord
100
AcDbDimStyleTableRecord
  2
AM_ANSI$7
 70
     0
  4
mm
 41
0.1
 42
0.05
 43
0.5
 44
0.1
 47
0.1
 48
0.1
 78
     7
 79
     2
140
0.24
141
0.0
146
0.71
147
0.06
176
   256
177
   256
178
     2
274
     4
340
F
371
    -1
372
    -1
  0
DIMSTYLE
105
366
330
A
100
AcDbSymbolTableRecord
100
AcDbDimStyleTableRecord
  2
AM_ANSI$SF
 70
     0
  4
mm
 41
0.1
 42
0.05
 43
0.5
 44
0.1
 47
0.1
 48
0.1
 75
     1
 76
     1
 78
     7
 79
     2
140
0.12
141
0.0
146
0.71
147
0.06
176
   256
177
   256
178
     2
274
     4
340
F
371
    -1
372
    -1
  0
DIMSTYLE
105
367
330
A
100
AcDbSymbolTableRecord
100
AcDbDimStyleTableRecord
  2
AM_ANSI$SH
 70
     0
  4
mm
 41
0.1
 42
0.05
 43
0.5
 44
0.1
 47
0.1
 48
0.1
 75
     1
 76
     1
 78
     7
 79
     2
140
0.12
141
0.0
146
0.71
147
0.06
173
     1
176
   256
177
   256
178
     2
274
     4
340
F
343
2BF
371
    -1
372
    -1
  0
DIMSTYLE
105
3A2
330
A
100
AcDbSymbolTableRecord
100
AcDbDimStyleTableRecord
  2
kuroda_sunpo
 70
     0
  4
"
 41
2.5
 42
1.0
 43
8.0
 44
1.0
 47
0.1
 48
0.1
 73
     0
 74
     0
 77
     3
 78
     8
 79
     2
140
3.2
141
0.0
143
0.0393701
146
0.71
147
1.5
172
     1
176
     7
177
     7
178
     7
179
     2
271
     3
272
     3
275
     1
283
     0
340
F
341
3A3
342
3A3
371
    -1
372
    -1
  0
DIMSTYLE
105
3AA
330
A
100
AcDbSymbolTableRecord
100
AcDbDimStyleTableRecord
  2
kuroda_sunpo$3
 70
     0
  4
"
 41
2.5
 42
1.0
 43
8.0
 44
1.0
 47
0.1
 48
0.1
 73
     0
 77
     3
 78
     8
 79
     2
140
3.2
141
0.0
143
0.0393701
146
0.71
147
1.5
176
     7
177
     7
178
     7
179
     2
271
     3
272
     3
275
     1
283
     0
288
     1
289
     0
340
F
341
3A3
342
3A3
371
    -1
372
    -1
  0
DIMSTYLE
105
3AB
330
A
100
AcDbSymbolTableRecord
100
AcDbDimStyleTableRecord
  2
kuroda_sunpo$4
 70
     0
  4
"
 41
2.5
 42
1.0
 43
8.0
 44
1.0
 47
0.1
 48
0.1
 73
     0
 77
     3
 78
     8
 79
     2
140
3.2
141
0.0
143
0.0393701
146
0.71
147
1.5
176
     7
177
     7
178
     7
179
     2
271
     3
272
     3
275
     1
283
     0
288
     1
289
     0
340
F
341
3A3
342
3A3
371
    -1
372
    -1
  0
DIMSTYLE
105
3AC
330
A
100
AcDbSymbolTableRecord
100
AcDbDimStyleTableRecord
  2
kuroda_sunpo$6
 70
     0
  4
"
 41
2.5
 42
1.0
 43
8.0
 44
1.0
 47
0.1
 48
0.1
 73
     0
 74
     0
 78
     8
 79
     2
140
3.2
141
0.0
143
0.0393701
146
0.71
147
1.5
172
     1
176
     7
177
     7
178
     7
179
     2
271
     3
272
     3
275
     1
283
     0
340
F
341
3A3
342
3A3
371
    -1
372
    -1
  0
DIMSTYLE
105
3AD
330
A
100
AcDbSymbolTableRecord
100
AcDbDimStyleTableRecord
  2
kuroda_sunpo$SF
 70
     0
  4
"
 41
2.5
 42
1.0
 43
8.0
 44
1.0
 47
0.1
 48
0.1
 73
     0
 74
     0
 75
     1
 76
     1
 77
     3
 78
     8
 79
     2
140
5.0
141
0.0
143
0.0393701
146
0.71
147
1.5
172
     1
176
   256
177
   256
178
     7
179
     2
271
     3
272
     3
275
     1
283
     0
340
F
341
32
342
32
371
    -1
372
    -1
  0
DIMSTYLE
105
3B4
330
A
100
AcDbSymbolTableRecord
100
AcDbDimStyleTableRecord
  2
kuroda_sunpo$SH
 70
     0
  4
"
 41
2.5
 42
1.0
 43
8.0
 44
1.0
 47
0.1
 48
0.1
 73
     0
 74
     0
 75
     1
 76
     1
 77
     3
 78
     8
 79
     2
140
5.0
141
0.0
143
0.0393701
144
2.0
146
0.71
147
1.5
172
     1
173
     1
176
   256
177
   256
178
     7
179
     2
271
     3
272
     3
275
     1
283
     0
340
F
341
32
342
32
343
2BF
371
    -1
372
    -1
  0
DIMSTYLE
105
3C7
330
A
100
AcDbSymbolTableRecord
100
AcDbDimStyleTableRecord
  2
JIS-KURODA
 70
     0
  4
"
 41
2.5
 42
1.0
 43
10.0
 44
1.0
 47
0.1
 48
0.1
 73
     0
 74
     0
 77
     3
 78
     8
 79
     2
140
3.2
141
0.0
143
0.0393701
146
0.71
147
1.5
172
     1
174
     1
176
     7
177
     7
178
     7
271
     2
272
     2
283
     0
284
     8
340
F
341
3A3
342
3A3
371
    -1
372
    -1
  0
DIMSTYLE
105
3C8
330
A
100
AcDbSymbolTableRecord
100
AcDbDimStyleTableRecord
  2
JIS-KURODA$2
 70
     0
  4
"
 41
2.5
 42
1.0
 43
10.0
 44
1.0
 47
0.1
 48
0.1
 73
     0
 74
     0
 77
     3
 78
     8
 79
     2
140
3.2
141
0.0
143
0.0393701
146
0.71
147
1.5
172
     1
174
     1
176
     7
177
     7
178
     7
271
     2
272
     2
283
     0
284
     8
340
F
341
3A3
342
3A3
371
    -1
372
    -1
  0
DIMSTYLE
105
3C9
330
A
100
AcDbSymbolTableRecord
100
AcDbDimStyleTableRecord
  2
JIS-KURODA$3
 70
     0
  4
"
 41
2.5
 42
1.0
 43
10.0
 44
1.0
 47
0.1
 48
0.1
 73
     0
 74
     0
 77
     3
 78
     8
 79
     2
140
3.2
141
0.0
143
0.0393701
146
0.71
147
1.5
172
     1
176
     7
177
     7
178
     7
271
     2
272
     2
283
     0
284
     8
288
     1
289
     2
340
F
341
32
342
3A3
371
    -1
372
    -1
  0
DIMSTYLE
105
3CA
330
A
100
AcDbSymbolTableRecord
100
AcDbDimStyleTableRecord
  2
JIS-KURODA$4
 70
     0
  4
"
 41
2.5
 42
1.0
 43
10.0
 44
1.0
 47
0.1
 48
0.1
 73
     0
 77
     3
 78
     8
 79
     2
140
3.2
141
0.0
143
0.0393701
146
0.71
147
1.5
173
     1
176
     7
177
     7
178
     7
271
     2
272
     2
279
     1
283
     0
284
     8
288
     1
289
     0
340
F
341
32
343
32
344
3A3
371
    -1
372
    -1
  0
DIMSTYLE
105
3CB
330
A
100
AcDbSymbolTableRecord
100
AcDbDimStyleTableRecord
  2
JIS-KURODA$6
 70
     0
  4
"
 41
2.5
 42
1.0
 43
10.0
 44
1.0
 47
0.1
 48
0.1
 73
     0
 74
     0
 78
     8
 79
     2
140
3.2
141
0.0
143
0.0393701
146
0.71
147
1.5
172
     1
176
     7
177
     7
178
     7
271
     2
272
     2
279
     1
283
     0
284
     8
340
F
341
32
342
32
371
    -1
372
    -1
  0
DIMSTYLE
105
3CC
330
A
100
AcDbSymbolTableRecord
100
AcDbDimStyleTableRecord
  2
JIS-KURODA$7
 70
     0
  4
"
 41
2.5
 42
1.0
 43
10.0
 44
1.0
 47
0.1
 48
0.1
 73
     0
 74
     0
 77
     3
 78
     8
 79
     2
140
4.000000000000003
141
0.0
143
0.0393701
146
0.71
147
1.5
172
     1
176
     7
177
     7
178
     7
271
     2
272
     2
279
     1
283
     0
284
     8
340
F
341
3A3
342
32
371
    -1
372
    -1
  0
DIMSTYLE
105
3CD
330
A
100
AcDbSymbolTableRecord
100
AcDbDimStyleTableRecord
  2
JIS-KURODA$SF
 70
     0
  4
"
 41
2.5
 42
1.0
 43
10.0
 44
1.0
 47
0.1
 48
0.1
 73
     0
 74
     0
 75
     1
 76
     1
 77
     3
 78
     8
 79
     2
140
3.5
141
0.0
143
0.0393701
146
0.71
147
1.5
172
     1
176
   256
177
   256
178
     7
271
     2
272
     3
274
     4
283
     0
284
     8
340
F
341
32
342
32
343
32
344
32
371
    -1
372
    -1
  0
DIMSTYLE
105
3CE
330
A
100
AcDbSymbolTableRecord
100
AcDbDimStyleTableRecord
  2
JIS-KURODA$SH
 70
     0
  4
"
 41
2.5
 42
1.0
 43
10.0
 44
1.0
 47
0.1
 48
0.1
 73
     0
 74
     0
 75
     1
 76
     1
 77
     3
 78
     8
 79
     2
140
3.5
141
0.0
143
0.0393701
144
2.0
146
0.71
147
1.5
172
     1
173
     1
176
   256
177
   256
178
     7
271
     2
272
     3
274
     4
283
     0
284
     8
340
F
341
32
342
32
343
2BF
344
32
371
    -1
372
    -1
  0
ENDTAB
  0
TABLE
  2
BLOCK_RECORD
  5
1
330
0
100
AcDbSymbolTable
 70
     4
  0
BLOCK_RECORD
  5
18
102
{ACAD_XDICTIONARY
360
20F
102
}
330
1
100
AcDbSymbolTableRecord
100
AcDbBlockTableRecord
  2
*MODEL_SPACE
340
60
  0
BLOCK_RECORD
  5
15
102
{ACAD_XDICTIONARY
360
20D
102
}
330
1
100
AcDbSymbolTableRecord
100
AcDbBlockTableRecord
  2
*PAPER_SPACE
340
61
  0
BLOCK_RECORD
  5
32
330
1
100
AcDbSymbolTableRecord
100
AcDbBlockTableRecord
  2
_Open30
340
0
  0
BLOCK_RECORD
  5
2BF
330
1
100
AcDbSymbolTableRecord
100
AcDbBlockTableRecord
  2
GENAXEH
340
0
  0
BLOCK_RECORD
  5
3A3
330
1
100
AcDbSymbolTableRecord
100
AcDbBlockTableRecord
  2
_Open
340
0
  0
ENDTAB
  0
ENDSEC
  0
SECTION
  2
BLOCKS
  0
BLOCK
  5
19
330
18
100
AcDbEntity
  8
0
100
AcDbBlockBegin
  2
*MODEL_SPACE
 70
     0
 10
0.0
 20
0.0
 30
0.0
  3
*MODEL_SPACE
  1

  0
ENDBLK
  5
1A
330
18
100
AcDbEntity
  8
0
100
AcDbBlockEnd
  0
BLOCK
  5
16
330
15
100
AcDbEntity
 67
     1
  8
0
100
AcDbBlockBegin
  2
*PAPER_SPACE
 70
     0
 10
0.0
 20
0.0
 30
0.0
  3
*PAPER_SPACE
  1

  0
ENDBLK
  5
17
330
15
100
AcDbEntity
 67
     1
  8
0
100
AcDbBlockEnd
  0
BLOCK
  5
47E
330
32
100
AcDbEntity
  8
0
100
AcDbBlockBegin
  2
_Open30
 70
     0
 10
0.0
 20
0.0
 30
0.0
  3
_Open30
  1

  0
LINE
  5
47F
330
32
100
AcDbEntity
  8
0
 62
     0
370
    -2
100
AcDbLine
 10
-1.0
 20
0.26794919
 30
0.0
 11
0.0
 21
0.0
 31
0.0
  0
LINE
  5
480
330
32
100
AcDbEntity
  8
0
 62
     0
370
    -2
100
AcDbLine
 10
0.0
 20
0.0
 30
0.0
 11
-1.0
 21
-0.26794919
 31
0.0
  0
LINE
  5
481
330
32
100
AcDbEntity
  8
0
 62
     0
370
    -2
100
AcDbLine
 10
0.0
 20
0.0
 30
0.0
 11
-1.0
 21
0.0
 31
0.0
  0
ENDBLK
  5
482
330
32
100
AcDbEntity
  8
0
100
AcDbBlockEnd
  0
BLOCK
  5
438
330
2BF
100
AcDbEntity
  8
0
100
AcDbBlockBegin
  2
GENAXEH
 70
     0
 10
0.0
 20
0.0
 30
0.0
  3
GENAXEH
  1

  0
LINE
  5
439
330
2BF
100
AcDbEntity
  8
0
100
AcDbLine
 10
-1.0
 20
0.0
 30
0.0
 11
1.0
 21
0.0
 31
0.0
  0
ENDBLK
  5
43A
330
2BF
100
AcDbEntity
  8
0
100
AcDbBlockEnd
  0
BLOCK
  5
473
330
3A3
100
AcDbEntity
  8
0
100
AcDbBlockBegin
  2
_Open
 70
     0
 10
0.0
 20
0.0
 30
0.0
  3
_Open
  1

  0
LINE
  5
474
330
3A3
100
AcDbEntity
  8
outline
 62
     0
370
    -2
100
AcDbLine
 10
-1.0
 20
0.1666666666666666
 30
0.0
 11
0.0
 21
0.0
 31
0.0
  0
LINE
  5
476
330
3A3
100
AcDbEntity
  8
outline
 62
     0
370
    -2
100
AcDbLine
 10
-1.0
 20
-0.1666666666666666
 30
0.0
 11
0.0
 21
0.0
 31
0.0
  0
LINE
  5
477
330
3A3
100
AcDbEntity
  8
outline
 62
     0
370
    -2
100
AcDbLine
 10
0.0
 20
0.0
 30
0.0
 11
-1.0
 21
0.0
 31
0.0
  0
ENDBLK
  5
478
330
3A3
100
AcDbEntity
  8
0
100
AcDbBlockEnd
  0
ENDSEC
  0
SECTION
  2
ENTITIES
  0
LINE
  5
76
330
18
100
AcDbEntity
  8
PV0001_1
  6
Continuous
 48
0.5
370
    50
100
AcDbLine
 10
-167.0
 20
191.60000610351
 30
0.0
 11
-165.39999389648
 21
191.60000610351
 31
0.0
  0
LINE
  5
77
330
18
100
AcDbEntity
  8
PV0001_1
  6
Continuous
 48
0.5
370
    50
100
AcDbLine
 10
-167.0
 20
196.39999389648
 30
0.0
 11
-167.0
 21
191.60000610351
 31
0.0
  0
LINE
  5
78
330
18
100
AcDbEntity
  8
PV0001_1
  6
Continuous
 48
0.5
370
    50
100
AcDbLine
 10
-167.0
 20
196.39999389648
 30
0.0
 11
-165.39999389648
 21
196.39999389648
 31
0.0
  0
LINE
  5
79
330
18
100
AcDbEntity
  8
PV0001_1
  6
Continuous
 48
0.5
370
    50
100
AcDbLine
 10
-165.39999389648
 20
196.39999389648
 30
0.0
 11
-165.39999389648
 21
194.80000305175
 31
0.0
  0
LINE
  5
7A
330
18
100
AcDbEntity
  8
PV0001_1
  6
Continuous
 48
0.5
370
    50
100
AcDbLine
 10
-160.39999389648
 20
196.39999389648
 30
0.0
 11
-160.39999389648
 21
192.80000305175
 31
0.0
  0
LINE
  5
7B
330
18
100
AcDbEntity
  8
PV0001_1
  6
Continuous
 48
0.5
370
    50
100
AcDbLine
 10
-159.19999694824
 20
191.60000610351
 30
0.0
 11
-155.39999389648
 21
191.60000610351
 31
0.0
  0
LINE
  5
7C
330
18
100
AcDbEntity
  8
PV0001_1
  6
Continuous
 48
0.5
370
    50
100
AcDbLine
 10
-160.39999389648
 20
196.39999389648
 30
0.0
 11
-159.0
 21
196.39999389648
 31
0.0
  0
LINE
  5
7D
330
18
100
AcDbEntity
  8
PV0001_1
  6
Continuous
 48
0.5
370
    50
100
AcDbLine
 10
-165.19999694824
 20
194.0
 30
0.0
 11
-164.30000305175
 21
194.0
 31
0.0
  0
LINE
  5
7E
330
18
100
AcDbEntity
  8
PV0001_1
  6
Continuous
 48
0.5
370
    50
100
AcDbLine
 10
-165.19999694824
 20
194.60000610351
 30
0.0
 11
-164.29782104492
 21
194.60000610351
 31
0.0
  0
LINE
  5
7F
330
18
100
AcDbEntity
  8
PV0001_1
  6
Continuous
 48
0.5
370
    50
100
AcDbLine
 10
-164.14004516601
 20
193.91998291015
 30
0.0
 11
-162.40003967285
 21
191.59997558593
 31
0.0
  0
LINE
  5
80
330
18
100
AcDbEntity
  8
PV0001_1
  6
Continuous
 48
0.5
370
    50
100
AcDbLine
 10
-162.67944335937
 20
194.25941467285
 30
0.0
 11
-160.39997863769
 21
191.6000213623
 31
0.0
  0
LINE
  5
81
330
18
100
AcDbEntity
  8
PV0001_1
  6
Continuous
 48
0.5
370
    50
100
AcDbLine
 10
-164.13993835449
 20
194.67721557617
 30
0.0
 11
-162.80000305175
 21
196.39999389648
 31
0.0
  0
LINE
  5
82
330
18
100
AcDbEntity
  8
PV0001_1
  6
Continuous
 48
0.5
370
    50
100
AcDbLine
 10
-162.66902160644
 20
194.53092956542
 30
0.0
 11
-160.79997253417
 21
196.39997863769
 31
0.0
  0
LINE
  5
83
330
18
100
AcDbEntity
  8
PV0001_1
  6
Continuous
 48
0.5
370
    50
100
AcDbLine
 10
-162.39999389648
 20
191.60000610351
 30
0.0
 11
-160.39999389648
 21
191.60000610351
 31
0.0
  0
LINE
  5
84
330
18
100
AcDbEntity
  8
PV0001_1
  6
Continuous
 48
0.5
370
    50
100
AcDbLine
 10
-162.80000305175
 20
196.39999389648
 30
0.0
 11
-160.80000305175
 21
196.39999389648
 31
0.0
  0
LINE
  5
85
330
18
100
AcDbEntity
  8
PV0001_1
  6
Continuous
 48
0.5
370
    50
100
AcDbLine
 10
-165.39999389648
 20
193.80000305175
 30
0.0
 11
-165.39999389648
 21
191.60000610351
 31
0.0
  0
LINE
  5
86
330
18
100
AcDbEntity
  8
PV0001_1
  6
Continuous
 48
0.5
370
    50
100
AcDbLine
 10
-154.19999694824
 20
196.40000915527
 30
0.0
 11
-154.19999694824
 21
192.80000305175
 31
0.0
  0
LINE
  5
87
330
18
100
AcDbEntity
  8
PV0001_1
  6
Continuous
 48
0.5
370
    50
100
AcDbLine
 10
-159.0
 20
196.39999389648
 30
0.0
 11
-159.0
 21
193.0
 31
0.0
  0
LINE
  5
88
330
18
100
AcDbEntity
  8
PV0001_1
  6
Continuous
 48
0.5
370
    50
100
AcDbLine
 10
-155.60000610351
 20
196.40000915527
 30
0.0
 11
-155.60000610351
 21
193.0
 31
0.0
  0
LINE
  5
89
330
18
100
AcDbEntity
  8
PV0001_1
  6
Continuous
 48
0.5
370
    50
100
AcDbLine
 10
-158.39999389648
 20
192.39999389648
 30
0.0
 11
-156.19999694824
 21
192.39999389648
 31
0.0
  0
LINE
  5
8A
330
18
100
AcDbEntity
  8
PV0001_1
  6
Continuous
 48
0.5
370
    50
100
AcDbLine
 10
-155.60000610351
 20
196.39999389648
 30
0.0
 11
-154.19999694824
 21
196.39999389648
 31
0.0
  0
LINE
  5
8B
330
18
100
AcDbEntity
  8
PV0001_1
  6
Continuous
 48
0.5
370
    50
100
AcDbLine
 10
-153.69999694824
 20
196.39999389648
 30
0.0
 11
-149.0
 21
196.39999389648
 31
0.0
  0
LINE
  5
8C
330
18
100
AcDbEntity
  8
PV0001_1
  6
Continuous
 48
0.5
370
    50
100
AcDbLine
 10
-153.69999694824
 20
191.60000610351
 30
0.0
 11
-152.10000610351
 21
191.60000610351
 31
0.0
  0
LINE
  5
8D
330
18
100
AcDbEntity
  8
PV0001_1
  6
Continuous
 48
0.5
370
    50
100
AcDbLine
 10
-153.69999694824
 20
196.40000915527
 30
0.0
 11
-153.69999694824
 21
191.60000610351
 31
0.0
  0
LINE
  5
8E
330
18
100
AcDbEntity
  8
PV0001_1
  6
Continuous
 48
0.5
370
    50
100
AcDbLine
 10
-149.19999694824
 20
195.20001220703
 30
0.0
 11
-149.19999694824
 21
194.5
 31
0.0
  0
LINE
  5
8F
330
18
100
AcDbEntity
  8
PV0001_1
  6
Continuous
 48
0.5
370
    50
100
AcDbLine
 10
-152.10000610351
 20
195.60000610351
 30
0.0
 11
-152.10000610351
 21
194.10000610351
 31
0.0
  0
LINE
  5
90
330
18
100
AcDbEntity
  8
PV0001_1
  6
Continuous
 48
0.5
370
    50
100
AcDbLine
 10
-151.69999694824
 20
193.19999694824
 30
0.0
 11
-149.80000305175
 21
193.19999694824
 31
0.0
  0
LINE
  5
91
330
18
100
AcDbEntity
  8
PV0001_1
  6
Continuous
 48
0.5
370
    50
100
AcDbLine
 10
-151.89999389648
 20
195.80000305175
 30
0.0
 11
-149.80000305175
 21
195.80000305175
 31
0.0
  0
LINE
  5
92
330
18
100
AcDbEntity
  8
PV0001_1
  6
Continuous
 48
0.5
370
    50
100
AcDbLine
 10
-151.89999389648
 20
193.89999389648
 30
0.0
 11
-149.80000305175
 21
193.89999389648
 31
0.0
  0
LINE
  5
93
330
18
100
AcDbEntity
  8
PV0001_1
  6
Continuous
 48
0.5
370
    50
100
AcDbLine
 10
-149.19999694824
 20
191.60000610351
 30
0.0
 11
-147.5
 21
191.60000610351
 31
0.0
  0
LINE
  5
94
330
18
100
AcDbEntity
  8
PV0001_1
  6
Continuous
 48
0.5
370
    50
100
AcDbLine
 10
-152.10000610351
 20
192.80000305175
 30
0.0
 11
-152.10000610351
 21
191.60000610351
 31
0.0
  0
LINE
  5
95
330
18
100
AcDbEntity
  8
PV0001_1
  6
Continuous
 48
0.5
370
    50
100
AcDbLine
 10
-145.80000305175
 20
191.60000610351
 30
0.0
 11
-142.0
 21
191.60000610351
 31
0.0
  0
LINE
  5
96
330
18
100
AcDbEntity
  8
PV0001_1
  6
Continuous
 48
0.5
370
    50
100
AcDbLine
 10
-144.80000305175
 20
195.80000305175
 30
0.0
 11
-143.0
 21
195.80000305175
 31
0.0
  0
LINE
  5
97
330
18
100
AcDbEntity
  8
PV0001_1
  6
Continuous
 48
0.5
370
    50
100
AcDbLine
 10
-145.80000305175
 20
196.39999389648
 30
0.0
 11
-142.0
 21
196.39999389648
 31
0.0
  0
LINE
  5
98
330
18
100
AcDbEntity
  8
PV0001_1
  6
Continuous
 48
0.5
370
    50
100
AcDbLine
 10
-149.19999694824
 20
192.60000610351
 30
0.0
 11
-149.19999694824
 21
191.60000610351
 31
0.0
  0
LINE
  5
99
330
18
100
AcDbEntity
  8
PV0001_1
  6
Continuous
 48
0.5
370
    50
100
AcDbLine
 10
-147.19999694824
 20
195.0
 30
0.0
 11
-147.19999694824
 21
193.0
 31
0.0
  0
LINE
  5
9A
330
18
100
AcDbEntity
  8
PV0001_1
  6
Continuous
 48
0.5
370
    50
100
AcDbLine
 10
-140.60000610351
 20
195.0
 30
0.0
 11
-140.60000610351
 21
193.0
 31
0.0
  0
LINE
  5
9B
330
18
100
AcDbEntity
  8
PV0001_1
  6
Continuous
 48
0.5
370
    50
100
AcDbLine
 10
-140.20634460449
 20
191.60000610351
 30
0.0
 11
-135.19999694824
 21
191.60000610351
 31
0.0
  0
LINE
  5
9C
330
18
100
AcDbEntity
  8
PV0001_1
  6
Continuous
 48
0.5
370
    50
100
AcDbLine
 10
-138.39999389648
 20
195.80000305175
 30
0.0
 11
-136.19999694824
 21
195.80000305175
 31
0.0
  0
LINE
  5
9D
330
18
100
AcDbEntity
  8
PV0001_1
  6
Continuous
 48
0.5
370
    50
100
AcDbLine
 10
-140.19999694824
 20
196.39999389648
 30
0.0
 11
-135.19999694824
 21
196.39999389648
 31
0.0
  0
LINE
  5
9E
330
18
100
AcDbEntity
  8
PV0001_1
  6
Continuous
 48
0.5
370
    50
100
AcDbLine
 10
-144.80000305175
 20
192.39999389648
 30
0.0
 11
-143.0
 21
192.39999389648
 31
0.0
  0
LINE
  5
9F
330
18
100
AcDbEntity
  8
PV0001_1
  6
Continuous
 48
0.5
370
    50
100
AcDbLine
 10
-145.60000610351
 20
195.0
 30
0.0
 11
-145.60000610351
 21
193.20001220703
 31
0.0
  0
LINE
  5
A0
330
18
100
AcDbEntity
  8
PV0001_1
  6
Continuous
 48
0.5
370
    50
100
AcDbLine
 10
-142.19999694824
 20
195.0
 30
0.0
 11
-142.19999694824
 21
193.20001220703
 31
0.0
  0
LINE
  5
A1
330
18
100
AcDbEntity
  8
PV0001_1
  6
Continuous
 48
0.5
370
    50
100
AcDbLine
 10
-133.80000305175
 20
195.00001525878
 30
0.0
 11
-133.80000305175
 21
193.00001525878
 31
0.0
  0
LINE
  5
A2
330
18
100
AcDbEntity
  8
PV0001_1
  6
Continuous
 48
0.5
370
    50
100
AcDbLine
 10
-140.19999694824
 20
196.40000915527
 30
0.0
 11
-140.19999694824
 21
191.60000610351
 31
0.0
  0
LINE
  5
A3
330
18
100
AcDbEntity
  8
PV0001_1
  6
Continuous
 48
0.5
370
    50
100
AcDbLine
 10
-138.60000610351
 20
195.60000610351
 30
0.0
 11
-138.60000610351
 21
192.60000610351
 31
0.0
  0
LINE
  5
A4
330
18
100
AcDbEntity
  8
PV0001_1
  6
Continuous
 48
0.5
370
    50
100
AcDbLine
 10
-135.39999389648
 20
195.00001525878
 30
0.0
 11
-135.39999389648
 21
193.20001220703
 31
0.0
  0
LINE
  5
A5
330
18
100
AcDbEntity
  8
PV0001_1
  6
Continuous
 48
0.5
370
    50
100
AcDbLine
 10
-138.39999389648
 20
192.39999389648
 30
0.0
 11
-136.19999694824
 21
192.39999389648
 31
0.0
  0
LINE
  5
A6
330
18
100
AcDbEntity
  8
PV0001_1
  6
Continuous
 48
0.5
370
    50
100
AcDbLine
 10
-133.80000305175
 20
191.60000610351
 30
0.0
 11
-132.19999694824
 21
191.60000610351
 31
0.0
  0
LINE
  5
A7
330
18
100
AcDbEntity
  8
PV0001_1
  6
Continuous
 48
0.5
370
    50
100
AcDbLine
 10
-130.65585327148
 20
195.80000305175
 30
0.0
 11
-129.744140625
 21
195.80000305175
 31
0.0
  0
LINE
  5
A8
330
18
100
AcDbEntity
  8
PV0001_1
  6
Continuous
 48
0.5
370
    50
100
AcDbLine
 10
-131.80000305175
 20
196.39999389648
 30
0.0
 11
-128.60000610351
 21
196.39999389648
 31
0.0
  0
LINE
  5
A9
330
18
100
AcDbEntity
  8
PV0001_1
  6
Continuous
 48
0.5
370
    50
100
AcDbLine
 10
-131.7225036621
 20
192.60000610351
 30
0.0
 11
-128.67749023437
 21
192.60000610351
 31
0.0
  0
LINE
  5
AA
330
18
100
AcDbEntity
  8
PV0001_1
  6
Continuous
 48
0.5
370
    50
100
AcDbLine
 10
-131.32250976562
 20
193.39999389648
 30
0.0
 11
-130.3283996582
 21
193.39999389648
 31
0.0
  0
LINE
  5
AB
330
18
100
AcDbEntity
  8
PV0001_1
  6
Continuous
 48
0.5
370
    50
100
AcDbLine
 10
-132.19992065429
 20
191.59997558593
 30
0.0
 11
-131.91218566894
 21
192.46322631835
 31
0.0
  0
LINE
  5
AC
330
18
100
AcDbEntity
  8
PV0001_1
  6
Continuous
 48
0.5
370
    50
100
AcDbLine
 10
-129.55435180664
 20
195.66328430175
 30
0.0
 11
-128.88768005371
 21
193.66328430175
 31
0.0
  0
LINE
  5
AD
330
18
100
AcDbEntity
  8
PV0001_1
  6
Continuous
 48
0.5
370
    50
100
AcDbLine
 10
-131.80000305175
 20
196.40000915527
 30
0.0
 11
-133.80000305175
 21
191.60000610351
 31
0.0
  0
LINE
  5
AE
330
18
100
AcDbEntity
  8
PV0001_1
  6
Continuous
 48
0.5
370
    50
100
AcDbLine
 10
-128.60000610351
 20
196.39999389648
 30
0.0
 11
-126.60000610351
 21
191.60000610351
 31
0.0
  0
LINE
  5
AF
330
18
100
AcDbEntity
  8
PV0001_1
  6
Continuous
 48
0.5
370
    50
100
AcDbLine
 10
-131.51217651367
 20
193.66323852539
 30
0.0
 11
-130.84552001953
 21
195.6632232666
 31
0.0
  0
LINE
  5
B0
330
18
100
AcDbEntity
  8
PV0001_1
  6
Continuous
 48
0.5
370
    50
100
AcDbLine
 10
-128.48768615722
 20
192.46327209472
 30
0.0
 11
-128.19993591308
 21
191.60003662109
 31
0.0
  0
LINE
  5
B1
330
18
100
AcDbEntity
  8
PV0001_1
  6
Continuous
 48
0.5
370
    50
100
AcDbLine
 10
-128.19999694824
 20
191.60000610351
 30
0.0
 11
-126.60000610351
 21
191.60000610351
 31
0.0
  0
LINE
  5
B2
330
18
100
AcDbEntity
  8
PV0001_1
  6
Continuous
 48
0.5
370
    50
100
AcDbLine
 10
-130.3283996582
 20
193.39999389648
 30
0.0
 11
-129.07748413085
 21
193.39999389648
 31
0.0
  0
LINE
  5
B3
330
18
100
AcDbEntity
  8
PV0001_1
  6
Continuous
 48
0.5
370
    50
100
AcDbLine
 10
-123.60000610351
 20
200.0
 30
0.0
 11
-123.60000610351
 21
188.0
 31
0.0
  0
LINE
  5
B4
330
18
100
AcDbEntity
  8
PV0001_1
  6
Continuous
370
    50
100
AcDbLine
 10
-170.0
 20
188.0
 30
0.0
 11
89.307983398437
 21
188.0
 31
0.0
  0
LINE
  5
B5
330
18
100
AcDbEntity
  8
PV0001_1
  6
Continuous
 48
0.5
370
    50
100
AcDbLine
 10
-61.600006103515
 20
200.0
 30
0.0
 11
-61.600006103515
 21
188.0
 31
0.0
  0
LINE
  5
B6
330
18
100
AcDbEntity
  8
PV0001_1
  6
Continuous
 48
0.5
370
    50
100
AcDbLine
 10
62.39999389648399
 20
200.0
 30
0.0
 11
62.39999389648399
 21
188.0
 31
0.0
  0
LINE
  5
B7
330
18
100
AcDbEntity
  8
PV0001_1
  6
CENTER2
 48
0.5
370
    25
100
AcDbLine
 10
65.557357788085
 20
194.0
 30
0.0
 11
73.144622802734
 21
194.0
 31
0.0
  0
LINE
  5
B8
330
18
100
AcDbEntity
  8
PV0001_1
  6
CENTER2
 48
0.5
370
    25
100
AcDbLine
 10
69.399993896484
 20
197.94480895996
 30
0.0
 11
69.399993896484
 21
190.26712036132
 31
0.0
  0
LINE
  5
B9
330
18
100
AcDbEntity
  8
PV0001_1
  6
CENTER2
 48
0.5
370
    25
100
AcDbLine
 10
77.485549926757
 20
194.0
 30
0.0
 11
85.92144775390599
 21
194.0
 31
0.0
  0
LINE
  5
BA
330
18
100
AcDbEntity
  8
PV0001_1
  6
Continuous
 48
0.5
370
   100
100
AcDbLine
 10
78.32803344726499
 20
195.61965942382
 30
0.0
 11
84.808052062988
 21
196.69966125488
 31
0.0
  0
LINE
  5
BB
330
18
100
AcDbEntity
  8
PV0001_1
  6
Continuous
 48
0.5
370
   100
100
AcDbLine
 10
78.32797241210901
 20
195.61999511718
 30
0.0
 11
78.32797241210901
 21
192.37995910644
 31
0.0
  0
LINE
  5
BC
330
18
100
AcDbEntity
  8
PV0001_1
  6
Continuous
 48
0.5
370
   100
100
AcDbLine
 10
78.328002929687
 20
192.37962341308
 30
0.0
 11
84.807998657226
 21
191.29962158203
 31
0.0
  0
LINE
  5
BD
330
18
100
AcDbEntity
  8
PV0001_1
  6
Continuous
 48
0.5
370
   100
100
AcDbLine
 10
84.80798339843699
 20
196.69999694824
 30
0.0
 11
84.80798339843699
 21
191.30000305175
 31
0.0
  0
LINE
  5
BE
330
18
100
AcDbEntity
  8
PV0001_1
  6
Continuous
 48
0.5
370
    50
100
AcDbLine
 10
89.307983398437
 20
200.0
 30
0.0
 11
89.307983398437
 21
188.0
 31
0.0
  0
LINE
  5
BF
330
18
100
AcDbEntity
  8
PV0001_1
  6
Continuous
370
    50
100
AcDbLine
 10
-170.0
 20
200.0
 30
0.0
 11
1005.0
 21
200.0
 31
0.0
  0
LINE
  5
C0
330
18
100
AcDbEntity
  8
PV0001_1
  6
Continuous
370
    50
100
AcDbLine
 10
-170.0
 20
200.0
 30
0.0
 11
-170.0
 21
-200.0
 31
0.0
  0
LINE
  5
C1
330
18
100
AcDbEntity
  8
PV0001_1
  6
Continuous
370
    50
100
AcDbLine
 10
1005.0
 20
200.0
 30
0.0
 11
1005.0
 21
-200.0
 31
0.0
  0
LINE
  5
C2
330
18
100
AcDbEntity
  8
PV0001_1
  6
CENTER2
370
    25
100
AcDbLine
 10
-136.50575256347
 20
0.0
 30
0.0
 11
136.50572204589
 21
0.0
 31
0.0
  0
LINE
  5
C3
330
18
100
AcDbEntity
  8
PV0001_1
  6
CENTER2
370
    25
100
AcDbLine
 10
0.0
 20
136.50578308105
 30
0.0
 11
0.0
 21
-136.50578308105
 31
0.0
  0
LINE
  5
C4
330
18
100
AcDbEntity
  8
PV0001_1
  6
DASHED2
 48
0.5
370
    50
100
AcDbLine
 10
-121.47999572753
 20
-2.5
 30
0.0
 11
-106.83009338378
 21
-2.5
 31
0.0
  0
LINE
  5
C5
330
18
100
AcDbEntity
  8
PV0001_1
  6
DASHED2
 48
0.5
370
    50
100
AcDbLine
 10
-121.47999572753
 20
2.5
 30
0.0
 11
-106.83009338378
 21
2.5
 31
0.0
  0
LINE
  5
C6
330
18
100
AcDbEntity
  8
PV0001_1
  6
DASHED2
 48
0.5
370
    50
100
AcDbLine
 10
-116.50573730468
 20
2.4999957084656
 30
0.0
 11
-116.50573730468
 21
-2.500004291534399
 31
0.0
  0
LINE
  5
C7
330
18
100
AcDbEntity
  8
PV0001_1
  6
DASHED2
370
    50
100
AcDbLine
 10
-98.169937133789
 20
-2.5
 30
0.0
 11
-51.839736938476
 21
-2.5
 31
0.0
  0
LINE
  5
C8
330
18
100
AcDbEntity
  8
PV0001_1
  6
DASHED2
370
    50
100
AcDbLine
 10
-98.169937133789
 20
2.5
 30
0.0
 11
-51.839736938476
 21
2.5
 31
0.0
  0
LINE
  5
C9
330
18
100
AcDbEntity
  8
PV0001_1
  6
CENTER2
370
    25
100
AcDbLine
 10
-119.12528228759
 20
68.776985168457
 30
0.0
 11
117.09899139404
 21
-67.607093811035
 31
0.0
  0
LINE
  5
CA
330
18
100
AcDbEntity
  8
PV0001_1
  6
CENTER2
370
    25
100
AcDbLine
 10
119.23441314697
 20
68.840019226074
 30
0.0
 11
-120.58098602294
 21
-69.617637634277
 31
0.0
  0
LINE
  5
CB
330
18
100
AcDbEntity
  8
PV0001_1
  6
CENTER2
370
    25
100
AcDbLine
 10
181.33332824707
 20
0.0
 30
0.0
 11
791.66668701171
 21
0.0
 31
0.0
  0
LINE
  5
CC
330
18
100
AcDbEntity
  8
PV0001_1
  6
Continuous
370
    50
100
AcDbLine
 10
400.0
 20
57.071350097656
 30
0.0
 11
586.0
 21
57.071350097656
 31
0.0
  0
LINE
  5
CD
330
18
100
AcDbEntity
  8
PV0001_1
  6
Continuous
370
    50
100
AcDbLine
 10
400.0
 20
-57.071350097656
 30
0.0
 11
586.0
 21
-57.071350097656
 31
0.0
  0
LINE
  5
CE
330
18
100
AcDbEntity
  8
PV0001_1
  6
Continuous
370
    50
100
AcDbLine
 10
368.0
 20
121.5
 30
0.0
 11
368.0
 21
-121.5
 31
0.0
  0
LINE
  5
CF
330
18
100
AcDbEntity
  8
PV0001_1
  6
Continuous
370
    50
100
AcDbLine
 10
400.0
 20
121.5
 30
0.0
 11
400.0
 21
-121.5
 31
0.0
  0
LINE
  5
D0
330
18
100
AcDbEntity
  8
PV0001_1
  6
Continuous
370
    50
100
AcDbLine
 10
368.0
 20
121.5
 30
0.0
 11
400.0
 21
121.5
 31
0.0
  0
LINE
  5
D1
330
18
100
AcDbEntity
  8
PV0001_1
  6
Continuous
370
    50
100
AcDbLine
 10
368.0
 20
-121.5
 30
0.0
 11
400.0
 21
-121.5
 31
0.0
  0
LINE
  5
D2
330
18
100
AcDbEntity
  8
PV0001_1
  6
Continuous
370
    50
100
AcDbLine
 10
605.0
 20
85.0
 30
0.0
 11
605.0
 21
-85.0
 31
0.0
  0
LINE
  5
D3
330
18
100
AcDbEntity
  8
PV0001_1
  6
Continuous
370
    50
100
AcDbLine
 10
586.0
 20
57.071350097656
 30
0.0
 11
586.0
 21
-57.071350097656
 31
0.0
  0
LINE
  5
D4
330
18
100
AcDbEntity
  8
PV0001_1
  6
Continuous
370
    50
100
AcDbLine
 10
400.0
 20
-85.0
 30
0.0
 11
605.0
 21
-85.0
 31
0.0
  0
LINE
  5
D5
330
18
100
AcDbEntity
  8
PV0001_1
  6
Continuous
370
    50
100
AcDbLine
 10
400.0
 20
85.0
 30
0.0
 11
605.0
 21
85.0
 31
0.0
  0
LINE
  5
D6
330
18
100
AcDbEntity
  8
PV0001_1
  6
CENTER2
370
    25
100
AcDbLine
 10
401.00784301757
 20
-65.000015258789
 30
0.0
 11
464.99221801757
 21
64.99997711181599
 31
0.0
  0
LINE
  5
D7
330
18
100
AcDbEntity
  8
PV0001_1
  6
CENTER2
370
    25
100
AcDbLine
 10
524.99224853515
 20
64.99996948242099
 30
0.0
 11
461.00784301757
 21
-65.000030517578
 31
0.0
  0
LINE
  5
D8
330
18
100
AcDbEntity
  8
PV0001_1
  6
CENTER2
370
    25
100
AcDbLine
 10
521.00793457031
 20
-65.000022888183
 30
0.0
 11
584.99230957031
 21
64.99999237060499
 31
0.0
  0
LINE
  5
D9
330
18
100
AcDbEntity
  8
PV0001_1
  6
DASHED2
 48
0.5
370
    50
100
AcDbLine
 10
376.0
 20
4.720633506774899
 30
0.0
 11
376.0
 21
-4.720633506774899
 31
0.0
  0
LINE
  5
DA
330
18
100
AcDbEntity
  8
PV0001_1
  6
CENTER2
 48
0.5
370
    25
100
AcDbLine
 10
395.0
 20
5.213213920593299
 30
0.0
 11
395.0
 21
-5.3821082115173
 31
0.0
  0
LINE
  5
DB
330
18
100
AcDbEntity
  8
PV0001_1
  6
DASHED2
 48
0.5
370
    50
100
AcDbLine
 10
368.0
 20
4.9999995231628
 30
0.0
 11
376.0
 21
4.720633506774899
 31
0.0
  0
LINE
  5
DC
330
18
100
AcDbEntity
  8
PV0001_1
  6
DASHED2
 48
0.5
370
    50
100
AcDbLine
 10
368.0
 20
-4.9999995231628
 30
0.0
 11
376.0
 21
-4.720633506774899
 31
0.0
  0
LINE
  5
DD
330
18
100
AcDbEntity
  8
PV0001_1
  6
DASHED2
 48
0.5
370
    50
100
AcDbLine
 10
367.96508789062
 20
4.000610828399699
 30
0.0
 11
375.96508789062
 21
3.7212443351746
 31
0.0
  0
LINE
  5
DE
330
18
100
AcDbEntity
  8
PV0001_1
  6
DASHED2
 48
0.5
370
    50
100
AcDbLine
 10
367.96508789062
 20
-4.000610828399699
 30
0.0
 11
375.96508789062
 21
-3.7212443351746
 31
0.0
  0
LINE
  5
DF
330
18
100
AcDbEntity
  8
PV0001_1
  6
DASHED2
 48
0.5
370
    50
100
AcDbLine
 10
395.0
 20
3.7200241088867
 30
0.0
 11
376.0
 21
3.7200241088867
 31
0.0
  0
LINE
  5
E0
330
18
100
AcDbEntity
  8
PV0001_1
  6
DASHED2
 48
0.5
370
    50
100
AcDbLine
 10
395.0
 20
-3.7200241088867
 30
0.0
 11
376.0
 21
-3.7200241088867
 31
0.0
  0
LINE
  5
E1
330
18
100
AcDbEntity
  8
PV0001_1
  6
DASHED2
 48
0.5
370
    50
100
AcDbLine
 10
395.00003051757
 20
3.720039129257199
 30
0.0
 11
395.77563476562
 21
2.376653432846099
 31
0.0
  0
LINE
  5
E2
330
18
100
AcDbEntity
  8
PV0001_1
  6
DASHED2
 48
0.5
370
    50
100
AcDbLine
 10
395.77560424804
 20
-2.3766412734985
 30
0.0
 11
395.0
 21
-3.720027685165399
 31
0.0
  0
LINE
  5
E3
330
18
100
AcDbEntity
  8
PV0001_1
  6
Continuous
370
    50
100
AcDbLine
 10
765.0
 20
50.0
 30
0.0
 11
605.0
 21
50.0
 31
0.0
  0
LINE
  5
E4
330
18
100
AcDbEntity
  8
PV0001_1
  6
Continuous
370
    25
100
AcDbLine
 10
765.0
 20
46.389999389648
 30
0.0
 11
605.0
 21
46.389999389648
 31
0.0
  0
LINE
  5
E5
330
18
100
AcDbEntity
  8
PV0001_1
  6
Continuous
370
    25
100
AcDbLine
 10
765.0
 20
-46.389999389648
 30
0.0
 11
605.0
 21
-46.389999389648
 31
0.0
  0
LINE
  5
E6
330
18
100
AcDbEntity
  8
PV0001_1
  6
Continuous
370
    50
100
AcDbLine
 10
765.0
 20
-50.0
 30
0.0
 11
605.0
 21
-50.0
 31
0.0
  0
LINE
  5
E7
330
18
100
AcDbEntity
  8
PV0001_1
  6
Continuous
370
    50
100
AcDbLine
 10
368.0
 20
50.0
 30
0.0
 11
208.0
 21
50.0
 31
0.0
  0
LINE
  5
E8
330
18
100
AcDbEntity
  8
PV0001_1
  6
Continuous
370
    25
100
AcDbLine
 10
368.0
 20
46.389999389648
 30
0.0
 11
208.0
 21
46.389999389648
 31
0.0
  0
LINE
  5
E9
330
18
100
AcDbEntity
  8
PV0001_1
  6
Continuous
370
    25
100
AcDbLine
 10
368.0
 20
-46.389999389648
 30
0.0
 11
208.0
 21
-46.389999389648
 31
0.0
  0
LINE
  5
EA
330
18
100
AcDbEntity
  8
PV0001_1
  6
Continuous
370
    50
100
AcDbLine
 10
368.0
 20
-50.0
 30
0.0
 11
208.0
 21
-50.0
 31
0.0
  0
LINE
  5
EB
330
18
100
AcDbEntity
  8
PV0001_1
  6
Continuous
370
    50
100
AcDbLine
 10
-170.0
 20
-212.0
 30
0.0
 11
89.307983398437
 21
-212.0
 31
0.0
  0
LINE
  5
EC
330
18
100
AcDbEntity
  8
PV0001_1
  6
Continuous
 48
0.5
370
    50
100
AcDbLine
 10
-130.3283996582
 20
-206.60000610351
 30
0.0
 11
-129.07748413085
 21
-206.60000610351
 31
0.0
  0
LINE
  5
ED
330
18
100
AcDbEntity
  8
PV0001_1
  6
Continuous
 48
0.5
370
    50
100
AcDbLine
 10
-128.19999694824
 20
-208.39999389648
 30
0.0
 11
-126.60000610351
 21
-208.39999389648
 31
0.0
  0
LINE
  5
EE
330
18
100
AcDbEntity
  8
PV0001_1
  6
Continuous
 48
0.5
370
    50
100
AcDbLine
 10
-128.48768615722
 20
-207.53674316406
 30
0.0
 11
-128.19993591308
 21
-208.3999633789
 31
0.0
  0
LINE
  5
EF
330
18
100
AcDbEntity
  8
PV0001_1
  6
Continuous
 48
0.5
370
    50
100
AcDbLine
 10
-131.51217651367
 20
-206.3367614746
 30
0.0
 11
-130.84552001953
 21
-204.33677673339
 31
0.0
  0
LINE
  5
F0
330
18
100
AcDbEntity
  8
PV0001_1
  6
Continuous
 48
0.5
370
    50
100
AcDbLine
 10
-128.60000610351
 20
-203.60000610351
 30
0.0
 11
-126.60000610351
 21
-208.40000915527
 31
0.0
  0
LINE
  5
F1
330
18
100
AcDbEntity
  8
PV0001_1
  6
Continuous
 48
0.5
370
    50
100
AcDbLine
 10
-131.80000305175
 20
-203.59999084472
 30
0.0
 11
-133.80000305175
 21
-208.39999389648
 31
0.0
  0
LINE
  5
F2
330
18
100
AcDbEntity
  8
PV0001_1
  6
Continuous
 48
0.5
370
    50
100
AcDbLine
 10
-129.55435180664
 20
-204.33673095703
 30
0.0
 11
-128.88768005371
 21
-206.33673095703
 31
0.0
  0
LINE
  5
F3
330
18
100
AcDbEntity
  8
PV0001_1
  6
Continuous
 48
0.5
370
    50
100
AcDbLine
 10
-132.19993591308
 20
-208.40002441406
 30
0.0
 11
-131.91218566894
 21
-207.53677368164
 31
0.0
  0
LINE
  5
F4
330
18
100
AcDbEntity
  8
PV0001_1
  6
Continuous
 48
0.5
370
    50
100
AcDbLine
 10
-131.32250976562
 20
-206.60000610351
 30
0.0
 11
-130.3283996582
 21
-206.60000610351
 31
0.0
  0
LINE
  5
F5
330
18
100
AcDbEntity
  8
PV0001_1
  6
Continuous
 48
0.5
370
    50
100
AcDbLine
 10
-131.7225036621
 20
-207.39999389648
 30
0.0
 11
-128.67749023437
 21
-207.39999389648
 31
0.0
  0
LINE
  5
F6
330
18
100
AcDbEntity
  8
PV0001_1
  6
Continuous
 48
0.5
370
    50
100
AcDbLine
 10
-131.80000305175
 20
-203.60000610351
 30
0.0
 11
-128.60000610351
 21
-203.60000610351
 31
0.0
  0
LINE
  5
F7
330
18
100
AcDbEntity
  8
PV0001_1
  6
Continuous
 48
0.5
370
    50
100
AcDbLine
 10
-130.65585327148
 20
-204.19999694824
 30
0.0
 11
-129.744140625
 21
-204.19999694824
 31
0.0
  0
LINE
  5
F8
330
18
100
AcDbEntity
  8
PV0001_1
  6
Continuous
 48
0.5
370
    50
100
AcDbLine
 10
-133.80000305175
 20
-208.39999389648
 30
0.0
 11
-132.19999694824
 21
-208.39999389648
 31
0.0
  0
LINE
  5
F9
330
18
100
AcDbEntity
  8
PV0001_1
  6
Continuous
 48
0.5
370
    50
100
AcDbLine
 10
-138.39999389648
 20
-207.60000610351
 30
0.0
 11
-136.19999694824
 21
-207.60000610351
 31
0.0
  0
LINE
  5
FA
330
18
100
AcDbEntity
  8
PV0001_1
  6
Continuous
 48
0.5
370
    50
100
AcDbLine
 10
-135.39999389648
 20
-204.99998474121
 30
0.0
 11
-135.39999389648
 21
-206.79998779296
 31
0.0
  0
LINE
  5
FB
330
18
100
AcDbEntity
  8
PV0001_1
  6
Continuous
 48
0.5
370
    50
100
AcDbLine
 10
-138.60000610351
 20
-204.39999389648
 30
0.0
 11
-138.60000610351
 21
-207.39999389648
 31
0.0
  0
LINE
  5
FC
330
18
100
AcDbEntity
  8
PV0001_1
  6
Continuous
 48
0.5
370
    50
100
AcDbLine
 10
-140.19999694824
 20
-203.59999084472
 30
0.0
 11
-140.19999694824
 21
-208.39999389648
 31
0.0
  0
LINE
  5
FD
330
18
100
AcDbEntity
  8
PV0001_1
  6
Continuous
 48
0.5
370
    50
100
AcDbLine
 10
-133.80000305175
 20
-204.99998474121
 30
0.0
 11
-133.80000305175
 21
-206.99998474121
 31
0.0
  0
LINE
  5
FE
330
18
100
AcDbEntity
  8
PV0001_1
  6
Continuous
 48
0.5
370
    50
100
AcDbLine
 10
-142.19999694824
 20
-205.0
 30
0.0
 11
-142.19999694824
 21
-206.79998779296
 31
0.0
  0
LINE
  5
FF
330
18
100
AcDbEntity
  8
PV0001_1
  6
Continuous
 48
0.5
370
    50
100
AcDbLine
 10
-145.60000610351
 20
-205.0
 30
0.0
 11
-145.60000610351
 21
-206.79998779296
 31
0.0
  0
LINE
  5
100
330
18
100
AcDbEntity
  8
PV0001_1
  6
Continuous
 48
0.5
370
    50
100
AcDbLine
 10
-144.80000305175
 20
-207.60000610351
 30
0.0
 11
-143.0
 21
-207.60000610351
 31
0.0
  0
LINE
  5
101
330
18
100
AcDbEntity
  8
PV0001_1
  6
Continuous
 48
0.5
370
    50
100
AcDbLine
 10
-140.19999694824
 20
-203.60000610351
 30
0.0
 11
-135.19999694824
 21
-203.60000610351
 31
0.0
  0
LINE
  5
102
330
18
100
AcDbEntity
  8
PV0001_1
  6
Continuous
 48
0.5
370
    50
100
AcDbLine
 10
-138.39999389648
 20
-204.19999694824
 30
0.0
 11
-136.19999694824
 21
-204.19999694824
 31
0.0
  0
LINE
  5
103
330
18
100
AcDbEntity
  8
PV0001_1
  6
Continuous
 48
0.5
370
    50
100
AcDbLine
 10
-140.20634460449
 20
-208.39999389648
 30
0.0
 11
-135.19999694824
 21
-208.39999389648
 31
0.0
  0
LINE
  5
104
330
18
100
AcDbEntity
  8
PV0001_1
  6
Continuous
 48
0.5
370
    50
100
AcDbLine
 10
-140.60000610351
 20
-205.0
 30
0.0
 11
-140.60000610351
 21
-207.0
 31
0.0
  0
LINE
  5
105
330
18
100
AcDbEntity
  8
PV0001_1
  6
Continuous
 48
0.5
370
    50
100
AcDbLine
 10
-147.19999694824
 20
-205.0
 30
0.0
 11
-147.19999694824
 21
-207.0
 31
0.0
  0
LINE
  5
106
330
18
100
AcDbEntity
  8
PV0001_1
  6
Continuous
 48
0.5
370
    50
100
AcDbLine
 10
-149.19999694824
 20
-207.39999389648
 30
0.0
 11
-149.19999694824
 21
-208.39999389648
 31
0.0
  0
LINE
  5
107
330
18
100
AcDbEntity
  8
PV0001_1
  6
Continuous
 48
0.5
370
    50
100
AcDbLine
 10
-145.80000305175
 20
-203.60000610351
 30
0.0
 11
-142.0
 21
-203.60000610351
 31
0.0
  0
LINE
  5
108
330
18
100
AcDbEntity
  8
PV0001_1
  6
Continuous
 48
0.5
370
    50
100
AcDbLine
 10
-144.80000305175
 20
-204.19999694824
 30
0.0
 11
-143.0
 21
-204.19999694824
 31
0.0
  0
LINE
  5
109
330
18
100
AcDbEntity
  8
PV0001_1
  6
Continuous
 48
0.5
370
    50
100
AcDbLine
 10
-145.80000305175
 20
-208.39999389648
 30
0.0
 11
-142.0
 21
-208.39999389648
 31
0.0
  0
LINE
  5
10A
330
18
100
AcDbEntity
  8
PV0001_1
  6
Continuous
 48
0.5
370
    50
100
AcDbLine
 10
-152.10000610351
 20
-207.19999694824
 30
0.0
 11
-152.10000610351
 21
-208.39999389648
 31
0.0
  0
LINE
  5
10B
330
18
100
AcDbEntity
  8
PV0001_1
  6
Continuous
 48
0.5
370
    50
100
AcDbLine
 10
-149.19999694824
 20
-208.39999389648
 30
0.0
 11
-147.5
 21
-208.39999389648
 31
0.0
  0
LINE
  5
10C
330
18
100
AcDbEntity
  8
PV0001_1
  6
Continuous
 48
0.5
370
    50
100
AcDbLine
 10
-151.89999389648
 20
-206.10000610351
 30
0.0
 11
-149.80000305175
 21
-206.10000610351
 31
0.0
  0
LINE
  5
10D
330
18
100
AcDbEntity
  8
PV0001_1
  6
Continuous
 48
0.5
370
    50
100
AcDbLine
 10
-151.89999389648
 20
-204.19999694824
 30
0.0
 11
-149.80000305175
 21
-204.19999694824
 31
0.0
  0
LINE
  5
10E
330
18
100
AcDbEntity
  8
PV0001_1
  6
Continuous
 48
0.5
370
    50
100
AcDbLine
 10
-151.69999694824
 20
-206.80000305175
 30
0.0
 11
-149.80000305175
 21
-206.80000305175
 31
0.0
  0
LINE
  5
10F
330
18
100
AcDbEntity
  8
PV0001_1
  6
Continuous
 48
0.5
370
    50
100
AcDbLine
 10
-152.10000610351
 20
-204.39999389648
 30
0.0
 11
-152.10000610351
 21
-205.89999389648
 31
0.0
  0
LINE
  5
110
330
18
100
AcDbEntity
  8
PV0001_1
  6
Continuous
 48
0.5
370
    50
100
AcDbLine
 10
-149.19999694824
 20
-204.79998779296
 30
0.0
 11
-149.19999694824
 21
-205.5
 31
0.0
  0
LINE
  5
111
330
18
100
AcDbEntity
  8
PV0001_1
  6
Continuous
 48
0.5
370
    50
100
AcDbLine
 10
-153.69999694824
 20
-203.59999084472
 30
0.0
 11
-153.69999694824
 21
-208.39999389648
 31
0.0
  0
LINE
  5
112
330
18
100
AcDbEntity
  8
PV0001_1
  6
Continuous
 48
0.5
370
    50
100
AcDbLine
 10
-153.69999694824
 20
-208.39999389648
 30
0.0
 11
-152.10000610351
 21
-208.39999389648
 31
0.0
  0
LINE
  5
113
330
18
100
AcDbEntity
  8
PV0001_1
  6
Continuous
 48
0.5
370
    50
100
AcDbLine
 10
-153.69999694824
 20
-203.60000610351
 30
0.0
 11
-149.0
 21
-203.60000610351
 31
0.0
  0
LINE
  5
114
330
18
100
AcDbEntity
  8
PV0001_1
  6
Continuous
 48
0.5
370
    50
100
AcDbLine
 10
-155.60000610351
 20
-203.60000610351
 30
0.0
 11
-154.19999694824
 21
-203.60000610351
 31
0.0
  0
LINE
  5
115
330
18
100
AcDbEntity
  8
PV0001_1
  6
Continuous
 48
0.5
370
    50
100
AcDbLine
 10
-158.39999389648
 20
-207.60000610351
 30
0.0
 11
-156.19999694824
 21
-207.60000610351
 31
0.0
  0
LINE
  5
116
330
18
100
AcDbEntity
  8
PV0001_1
  6
Continuous
 48
0.5
370
    50
100
AcDbLine
 10
-155.60000610351
 20
-203.59999084472
 30
0.0
 11
-155.60000610351
 21
-207.0
 31
0.0
  0
LINE
  5
117
330
18
100
AcDbEntity
  8
PV0001_1
  6
Continuous
 48
0.5
370
    50
100
AcDbLine
 10
-159.0
 20
-203.60000610351
 30
0.0
 11
-159.0
 21
-207.0
 31
0.0
  0
LINE
  5
118
330
18
100
AcDbEntity
  8
PV0001_1
  6
Continuous
 48
0.5
370
    50
100
AcDbLine
 10
-154.19999694824
 20
-203.59999084472
 30
0.0
 11
-154.19999694824
 21
-207.19999694824
 31
0.0
  0
LINE
  5
119
330
18
100
AcDbEntity
  8
PV0001_1
  6
Continuous
 48
0.5
370
    50
100
AcDbLine
 10
-165.39999389648
 20
-206.19999694824
 30
0.0
 11
-165.39999389648
 21
-208.39999389648
 31
0.0
  0
LINE
  5
11A
330
18
100
AcDbEntity
  8
PV0001_1
  6
Continuous
 48
0.5
370
    50
100
AcDbLine
 10
-162.80000305175
 20
-203.60000610351
 30
0.0
 11
-160.80000305175
 21
-203.60000610351
 31
0.0
  0
LINE
  5
11B
330
18
100
AcDbEntity
  8
PV0001_1
  6
Continuous
 48
0.5
370
    50
100
AcDbLine
 10
-162.39999389648
 20
-208.39999389648
 30
0.0
 11
-160.39999389648
 21
-208.39999389648
 31
0.0
  0
LINE
  5
11C
330
18
100
AcDbEntity
  8
PV0001_1
  6
Continuous
 48
0.5
370
    50
100
AcDbLine
 10
-162.66900634765
 20
-205.46905517578
 30
0.0
 11
-160.79997253417
 21
-203.6000213623
 31
0.0
  0
LINE
  5
11D
330
18
100
AcDbEntity
  8
PV0001_1
  6
Continuous
 48
0.5
370
    50
100
AcDbLine
 10
-164.13993835449
 20
-205.32278442382
 30
0.0
 11
-162.80000305175
 21
-203.60000610351
 31
0.0
  0
LINE
  5
11E
330
18
100
AcDbEntity
  8
PV0001_1
  6
Continuous
 48
0.5
370
    50
100
AcDbLine
 10
-162.67944335937
 20
-205.74058532714
 30
0.0
 11
-160.3999633789
 21
-208.3999633789
 31
0.0
  0
LINE
  5
11F
330
18
100
AcDbEntity
  8
PV0001_1
  6
Continuous
 48
0.5
370
    50
100
AcDbLine
 10
-164.14004516601
 20
-206.08003234863
 30
0.0
 11
-162.40003967285
 21
-208.40003967285
 31
0.0
  0
LINE
  5
120
330
18
100
AcDbEntity
  8
PV0001_1
  6
Continuous
 48
0.5
370
    50
100
AcDbLine
 10
-165.19999694824
 20
-205.39999389648
 30
0.0
 11
-164.29782104492
 21
-205.39999389648
 31
0.0
  0
LINE
  5
121
330
18
100
AcDbEntity
  8
PV0001_1
  6
Continuous
 48
0.5
370
    50
100
AcDbLine
 10
-165.19999694824
 20
-206.0
 30
0.0
 11
-164.30000305175
 21
-206.0
 31
0.0
  0
LINE
  5
122
330
18
100
AcDbEntity
  8
PV0001_1
  6
Continuous
 48
0.5
370
    50
100
AcDbLine
 10
-160.39999389648
 20
-203.60000610351
 30
0.0
 11
-159.0
 21
-203.60000610351
 31
0.0
  0
LINE
  5
123
330
18
100
AcDbEntity
  8
PV0001_1
  6
Continuous
 48
0.5
370
    50
100
AcDbLine
 10
-159.19999694824
 20
-208.39999389648
 30
0.0
 11
-155.39999389648
 21
-208.39999389648
 31
0.0
  0
LINE
  5
124
330
18
100
AcDbEntity
  8
PV0001_1
  6
Continuous
 48
0.5
370
    50
100
AcDbLine
 10
-160.39999389648
 20
-203.60000610351
 30
0.0
 11
-160.39999389648
 21
-207.19999694824
 31
0.0
  0
LINE
  5
125
330
18
100
AcDbEntity
  8
PV0001_1
  6
Continuous
 48
0.5
370
    50
100
AcDbLine
 10
-165.39999389648
 20
-203.60000610351
 30
0.0
 11
-165.39999389648
 21
-205.19999694824
 31
0.0
  0
LINE
  5
126
330
18
100
AcDbEntity
  8
PV0001_1
  6
Continuous
 48
0.5
370
    50
100
AcDbLine
 10
-167.0
 20
-203.60000610351
 30
0.0
 11
-165.39999389648
 21
-203.60000610351
 31
0.0
  0
LINE
  5
127
330
18
100
AcDbEntity
  8
PV0001_1
  6
Continuous
 48
0.5
370
    50
100
AcDbLine
 10
-167.0
 20
-203.60000610351
 30
0.0
 11
-167.0
 21
-208.39999389648
 31
0.0
  0
LINE
  5
128
330
18
100
AcDbEntity
  8
PV0001_1
  6
Continuous
 48
0.5
370
    50
100
AcDbLine
 10
-167.0
 20
-208.39999389648
 30
0.0
 11
-165.39999389648
 21
-208.39999389648
 31
0.0
  0
LINE
  5
129
330
18
100
AcDbEntity
  8
PV0001_1
  6
Continuous
 48
0.5
370
    50
100
AcDbLine
 10
62.39999389648399
 20
-200.0
 30
0.0
 11
62.39999389648399
 21
-212.0
 31
0.0
  0
LINE
  5
12A
330
18
100
AcDbEntity
  8
PV0001_1
  6
Continuous
 48
0.5
370
    50
100
AcDbLine
 10
-61.600006103515
 20
-200.0
 30
0.0
 11
-61.600006103515
 21
-212.0
 31
0.0
  0
LINE
  5
12B
330
18
100
AcDbEntity
  8
PV0001_1
  6
Continuous
 48
0.5
370
    50
100
AcDbLine
 10
-123.60000610351
 20
-200.0
 30
0.0
 11
-123.60000610351
 21
-212.0
 31
0.0
  0
LINE
  5
12C
330
18
100
AcDbEntity
  8
PV0001_1
  6
Continuous
 48
0.5
370
    50
100
AcDbLine
 10
89.307983398437
 20
-200.0
 30
0.0
 11
89.307983398437
 21
-212.0
 31
0.0
  0
LINE
  5
12D
330
18
100
AcDbEntity
  8
PV0001_1
  6
Continuous
 48
0.5
370
   100
100
AcDbLine
 10
84.80798339843699
 20
-203.30000305175
 30
0.0
 11
84.80798339843699
 21
-208.69999694824
 31
0.0
  0
LINE
  5
12E
330
18
100
AcDbEntity
  8
PV0001_1
  6
Continuous
 48
0.5
370
   100
100
AcDbLine
 10
78.328002929687
 20
-207.6203918457
 30
0.0
 11
84.808006286621
 21
-208.70039367675
 31
0.0
  0
LINE
  5
12F
330
18
100
AcDbEntity
  8
PV0001_1
  6
Continuous
 48
0.5
370
   100
100
AcDbLine
 10
78.32797241210901
 20
-204.38000488281
 30
0.0
 11
78.32797241210901
 21
-207.62004089355
 31
0.0
  0
LINE
  5
130
330
18
100
AcDbEntity
  8
PV0001_1
  6
Continuous
 48
0.5
370
   100
100
AcDbLine
 10
78.32803344726499
 20
-204.38034057617
 30
0.0
 11
84.808052062988
 21
-203.30033874511
 31
0.0
  0
LINE
  5
131
330
18
100
AcDbEntity
  8
PV0001_1
  6
CENTER2
 48
0.5
370
    25
100
AcDbLine
 10
77.485549926757
 20
-206.0
 30
0.0
 11
85.92144775390599
 21
-206.0
 31
0.0
  0
LINE
  5
132
330
18
100
AcDbEntity
  8
PV0001_1
  6
CENTER2
 48
0.5
370
    25
100
AcDbLine
 10
69.399993896484
 20
-202.05519104003
 30
0.0
 11
69.399993896484
 21
-209.73287963867
 31
0.0
  0
LINE
  5
133
330
18
100
AcDbEntity
  8
PV0001_1
  6
CENTER2
 48
0.5
370
    25
100
AcDbLine
 10
65.557357788085
 20
-206.0
 30
0.0
 11
73.144622802734
 21
-206.0
 31
0.0
  0
LINE
  5
134
330
18
100
AcDbEntity
  8
PV0001_1
  6
Continuous
370
    50
100
AcDbLine
 10
-170.0
 20
-600.0
 30
0.0
 11
1005.0
 21
-600.0
 31
0.0
  0
LINE
  5
135
330
18
100
AcDbEntity
  8
PV0001_1
  6
Continuous
370
    50
100
AcDbLine
 10
-170.0
 20
-200.0
 30
0.0
 11
1005.0
 21
-200.0
 31
0.0
  0
LINE
  5
136
330
18
100
AcDbEntity
  8
PV0001_1
  6
Continuous
370
    50
100
AcDbLine
 10
-170.0
 20
-200.0
 30
0.0
 11
-170.0
 21
-600.0
 31
0.0
  0
LINE
  5
137
330
18
100
AcDbEntity
  8
PV0001_1
  6
Continuous
370
    50
100
AcDbLine
 10
1005.0
 20
-200.0
 30
0.0
 11
1005.0
 21
-600.0
 31
0.0
  0
LINE
  5
138
330
18
100
AcDbEntity
  8
PV0001_1
  6
CENTER2
370
    25
100
AcDbLine
 10
-136.50575256347
 20
-400.0
 30
0.0
 11
136.50572204589
 21
-400.0
 31
0.0
  0
LINE
  5
139
330
18
100
AcDbEntity
  8
PV0001_1
  6
CENTER2
370
    25
100
AcDbLine
 10
0.0
 20
-263.49420166015
 30
0.0
 11
0.0
 21
-536.50579833984
 31
0.0
  0
LINE
  5
13A
330
18
100
AcDbEntity
  8
PV0001_1
  6
DASHED2
 48
0.5
370
    50
100
AcDbLine
 10
-121.47999572753
 20
-402.5
 30
0.0
 11
-106.83009338378
 21
-402.5
 31
0.0
  0
LINE
  5
13B
330
18
100
AcDbEntity
  8
PV0001_1
  6
DASHED2
 48
0.5
370
    50
100
AcDbLine
 10
-121.47999572753
 20
-397.5
 30
0.0
 11
-106.83009338378
 21
-397.5
 31
0.0
  0
LINE
  5
13C
330
18
100
AcDbEntity
  8
PV0001_1
  6
DASHED2
 48
0.5
370
    50
100
AcDbLine
 10
-116.50573730468
 20
-397.5
 30
0.0
 11
-116.50573730468
 21
-402.5
 31
0.0
  0
LINE
  5
13D
330
18
100
AcDbEntity
  8
PV0001_1
  6
DASHED2
370
    50
100
AcDbLine
 10
-98.169937133789
 20
-402.5
 30
0.0
 11
-51.839736938476
 21
-402.5
 31
0.0
  0
LINE
  5
13E
330
18
100
AcDbEntity
  8
PV0001_1
  6
DASHED2
370
    50
100
AcDbLine
 10
-98.169937133789
 20
-397.5
 30
0.0
 11
-51.839736938476
 21
-397.5
 31
0.0
  0
LINE
  5
13F
330
18
100
AcDbEntity
  8
PV0001_1
  6
CENTER2
370
    25
100
AcDbLine
 10
-97.265365600585
 20
-302.73458862304
 30
0.0
 11
95.61098480224599
 21
-495.61083984375
 31
0.0
  0
LINE
  5
140
330
18
100
AcDbEntity
  8
PV0001_1
  6
CENTER2
370
    25
100
AcDbLine
 10
97.35446929931599
 20
-302.6455078125
 30
0.0
 11
-98.453941345214
 21
-498.4541015625
 31
0.0
  0
LINE
  5
141
330
18
100
AcDbEntity
  8
PV0001_1
  6
Continuous
370
    50
100
AcDbLine
 10
91.0
 20
-319.48510742187
 30
0.0
 11
91.0
 21
-480.51489257812
 31
0.0
  0
LINE
  5
142
330
18
100
AcDbEntity
  8
PV0001_1
  6
CENTER2
370
    25
100
AcDbLine
 10
181.33332824707
 20
-400.0
 30
0.0
 11
791.66668701171
 21
-400.0
 31
0.0
  0
LINE
  5
143
330
18
100
AcDbEntity
  8
PV0001_1
  6
Continuous
370
    50
100
AcDbLine
 10
400.0
 20
-342.92864990234
 30
0.0
 11
586.0
 21
-342.92864990234
 31
0.0
  0
LINE
  5
144
330
18
100
AcDbEntity
  8
PV0001_1
  6
Continuous
370
    50
100
AcDbLine
 10
400.0
 20
-457.0713500976499
 30
0.0
 11
586.0
 21
-457.0713500976499
 31
0.0
  0
LINE
  5
145
330
18
100
AcDbEntity
  8
PV0001_1
  6
Continuous
370
    50
100
AcDbLine
 10
368.0
 20
-278.5
 30
0.0
 11
368.0
 21
-521.4999999999999
 31
0.0
  0
LINE
  5
146
330
18
100
AcDbEntity
  8
PV0001_1
  6
Continuous
370
    50
100
AcDbLine
 10
400.0
 20
-278.5
 30
0.0
 11
400.0
 21
-521.4999999999999
 31
0.0
  0
LINE
  5
147
330
18
100
AcDbEntity
  8
PV0001_1
  6
Continuous
370
    50
100
AcDbLine
 10
368.0
 20
-278.5
 30
0.0
 11
400.0
 21
-278.5
 31
0.0
  0
LINE
  5
148
330
18
100
AcDbEntity
  8
PV0001_1
  6
Continuous
370
    50
100
AcDbLine
 10
368.0
 20
-521.4999999999999
 30
0.0
 11
400.0
 21
-521.4999999999999
 31
0.0
  0
LINE
  5
149
330
18
100
AcDbEntity
  8
PV0001_1
  6
Continuous
370
    50
100
AcDbLine
 10
605.0
 20
-315.0
 30
0.0
 11
605.0
 21
-485.0
 31
0.0
  0
LINE
  5
14A
330
18
100
AcDbEntity
  8
PV0001_1
  6
Continuous
370
    50
100
AcDbLine
 10
586.0
 20
-342.92864990234
 30
0.0
 11
586.0
 21
-457.0713500976499
 31
0.0
  0
LINE
  5
14B
330
18
100
AcDbEntity
  8
PV0001_1
  6
Continuous
370
    50
100
AcDbLine
 10
400.0
 20
-485.0
 30
0.0
 11
605.0
 21
-485.0
 31
0.0
  0
LINE
  5
14C
330
18
100
AcDbEntity
  8
PV0001_1
  6
Continuous
370
    50
100
AcDbLine
 10
400.0
 20
-315.0
 30
0.0
 11
605.0
 21
-315.0
 31
0.0
  0
LINE
  5
14D
330
18
100
AcDbEntity
  8
PV0001_1
  6
CENTER2
370
    25
100
AcDbLine
 10
401.00784301757
 20
-465.00003051757
 30
0.0
 11
464.99221801757
 21
-335.00003051757
 31
0.0
  0
LINE
  5
14E
330
18
100
AcDbEntity
  8
PV0001_1
  6
CENTER2
370
    25
100
AcDbLine
 10
524.99224853515
 20
-335.00003051757
 30
0.0
 11
461.00787353515
 21
-465.00003051757
 31
0.0
  0
LINE
  5
14F
330
18
100
AcDbEntity
  8
PV0001_1
  6
CENTER2
370
    25
100
AcDbLine
 10
521.0078735351499
 20
-465.00003051757
 30
0.0
 11
584.9922485351499
 21
-335.0
 31
0.0
  0
LINE
  5
150
330
18
100
AcDbEntity
  8
PV0001_1
  6
DASHED2
 48
0.5
370
    50
100
AcDbLine
 10
376.0
 20
-395.27935791015
 30
0.0
 11
376.0
 21
-404.7206420898399
 31
0.0
  0
LINE
  5
151
330
18
100
AcDbEntity
  8
PV0001_1
  6
CENTER2
 48
0.5
370
    25
100
AcDbLine
 10
395.0
 20
-394.78677368164
 30
0.0
 11
395.0
 21
-405.3821105956999
 31
0.0
  0
LINE
  5
152
330
18
100
AcDbEntity
  8
PV0001_1
  6
DASHED2
 48
0.5
370
    50
100
AcDbLine
 10
368.0
 20
-395.0
 30
0.0
 11
376.0
 21
-395.27935791015
 31
0.0
  0
LINE
  5
153
330
18
100
AcDbEntity
  8
PV0001_1
  6
DASHED2
 48
0.5
370
    50
100
AcDbLine
 10
367.99996948242
 20
-405.0
 30
0.0
 11
376.0
 21
-404.7206420898399
 31
0.0
  0
LINE
  5
154
330
18
100
AcDbEntity
  8
PV0001_1
  6
DASHED2
 48
0.5
370
    50
100
AcDbLine
 10
367.96508789062
 20
-395.99938964843
 30
0.0
 11
375.9651184082
 21
-396.27874755859
 31
0.0
  0
LINE
  5
155
330
18
100
AcDbEntity
  8
PV0001_1
  6
DASHED2
 48
0.5
370
    50
100
AcDbLine
 10
367.96508789062
 20
-404.0006103515599
 30
0.0
 11
375.96508789062
 21
-403.7212524414
 31
0.0
  0
LINE
  5
156
330
18
100
AcDbEntity
  8
PV0001_1
  6
DASHED2
 48
0.5
370
    50
100
AcDbLine
 10
395.0
 20
-396.27996826171
 30
0.0
 11
376.0
 21
-396.27996826171
 31
0.0
  0
LINE
  5
157
330
18
100
AcDbEntity
  8
PV0001_1
  6
DASHED2
 48
0.5
370
    50
100
AcDbLine
 10
395.0
 20
-403.72003173828
 30
0.0
 11
376.0
 21
-403.72003173828
 31
0.0
  0
LINE
  5
158
330
18
100
AcDbEntity
  8
PV0001_1
  6
DASHED2
 48
0.5
370
    50
100
AcDbLine
 10
395.00003051757
 20
-396.27993774414
 30
0.0
 11
395.77563476562
 21
-397.6233215332
 31
0.0
  0
LINE
  5
159
330
18
100
AcDbEntity
  8
PV0001_1
  6
DASHED2
 48
0.5
370
    50
100
AcDbLine
 10
395.77560424804
 20
-402.37664794921
 30
0.0
 11
395.0
 21
-403.72003173828
 31
0.0
  0
LINE
  5
15A
330
18
100
AcDbEntity
  8
PV0001_1
  6
Continuous
370
    50
100
AcDbLine
 10
765.0
 20
-350.0
 30
0.0
 11
605.0
 21
-350.0
 31
0.0
  0
LINE
  5
15B
330
18
100
AcDbEntity
  8
PV0001_1
  6
Continuous
370
    25
100
AcDbLine
 10
765.0
 20
-353.60998535156
 30
0.0
 11
605.0
 21
-353.60998535156
 31
0.0
  0
LINE
  5
15C
330
18
100
AcDbEntity
  8
PV0001_1
  6
Continuous
370
    25
100
AcDbLine
 10
765.0
 20
-446.39001464843
 30
0.0
 11
605.0
 21
-446.39001464843
 31
0.0
  0
LINE
  5
15D
330
18
100
AcDbEntity
  8
PV0001_1
  6
Continuous
370
    50
100
AcDbLine
 10
765.0
 20
-450.0
 30
0.0
 11
605.0
 21
-450.0
 31
0.0
  0
LINE
  5
15E
330
18
100
AcDbEntity
  8
PV0001_1
  6
Continuous
370
    50
100
AcDbLine
 10
368.0
 20
-350.0
 30
0.0
 11
208.0
 21
-350.0
 31
0.0
  0
LINE
  5
15F
330
18
100
AcDbEntity
  8
PV0001_1
  6
Continuous
370
    25
100
AcDbLine
 10
368.0
 20
-353.60998535156
 30
0.0
 11
208.0
 21
-353.60998535156
 31
0.0
  0
LINE
  5
160
330
18
100
AcDbEntity
  8
PV0001_1
  6
Continuous
370
    25
100
AcDbLine
 10
368.0
 20
-446.39001464843
 30
0.0
 11
208.0
 21
-446.39001464843
 31
0.0
  0
LINE
  5
161
330
18
100
AcDbEntity
  8
PV0001_1
  6
Continuous
370
    50
100
AcDbLine
 10
368.0
 20
-450.0
 30
0.0
 11
208.0
 21
-450.0
 31
0.0
  0
ARC
  5
162
330
18
100
AcDbEntity
  8
PV0001_1
  6
Continuous
 48
0.5
370
    50
100
AcDbCircle
 10
-162.5276184082
 20
194.38954162597
 30
0.0
 40
0.2000000029802
100
AcDbArc
 50
135.0000549831359
 51
220.6012585677736
  0
ARC
  5
163
330
18
100
AcDbEntity
  8
PV0001_1
  6
Continuous
 48
0.5
370
    50
100
AcDbCircle
 10
-164.29782104492
 20
194.80000305175
 30
0.0
 40
0.2000000029802
100
AcDbArc
 50
270.0000179860904
 51
322.1249959578259
  0
ARC
  5
164
330
18
100
AcDbEntity
  8
PV0001_1
  6
Continuous
 48
0.5
370
    50
100
AcDbCircle
 10
-164.30000305175
 20
193.80000305175
 30
0.0
 40
0.2000000029802
100
AcDbArc
 50
36.86990755486351
 51
89.99998201390964
  0
ARC
  5
165
330
18
100
AcDbEntity
  8
PV0001_1
  6
Continuous
 48
0.5
370
    50
100
AcDbCircle
 10
-165.19999694824
 20
194.80000305175
 30
0.0
 40
0.2000000029802
100
AcDbArc
 50
179.9999776881987
 51
270.0000280040004
  0
ARC
  5
166
330
18
100
AcDbEntity
  8
PV0001_1
  6
Continuous
 48
0.5
370
    50
100
AcDbCircle
 10
-165.19999694824
 20
193.80000305175
 30
0.0
 40
0.2000000029802
100
AcDbArc
 50
89.99998201390964
 51
179.9999640278192
  0
ARC
  5
167
330
18
100
AcDbEntity
  8
PV0001_1
  6
Continuous
 48
0.5
370
    50
100
AcDbCircle
 10
-159.19999694824
 20
192.80000305175
 30
0.0
 40
1.2000000476837
100
AcDbArc
 50
179.9999776881987
 51
270.0000280040004
  0
ARC
  5
168
330
18
100
AcDbEntity
  8
PV0001_1
  6
Continuous
 48
0.5
370
    50
100
AcDbCircle
 10
-155.39999389648
 20
192.80000305175
 30
0.0
 40
1.2000000476837
100
AcDbArc
 50
270.0000179860904
 51
0.0
  0
ARC
  5
169
330
18
100
AcDbEntity
  8
PV0001_1
  6
Continuous
 48
0.5
370
    50
100
AcDbCircle
 10
-156.19999694824
 20
193.0
 30
0.0
 40
0.6000000238419
100
AcDbArc
 50
270.0000179860904
 51
0.0
  0
ARC
  5
16A
330
18
100
AcDbEntity
  8
PV0001_1
  6
Continuous
 48
0.5
370
    50
100
AcDbCircle
 10
-158.39999389648
 20
193.0
 30
0.0
 40
0.6000000238419
100
AcDbArc
 50
179.9999776881987
 51
270.0000280040004
  0
ARC
  5
16B
330
18
100
AcDbEntity
  8
PV0001_1
  6
Continuous
 48
0.5
370
    50
100
AcDbCircle
 10
-149.5
 20
191.60000610351
 30
0.0
 40
2.0
100
AcDbArc
 50
0.0
 51
54.42673123145972
  0
ARC
  5
16C
330
18
100
AcDbEntity
  8
PV0001_1
  6
Continuous
 48
0.5
370
    50
100
AcDbCircle
 10
-149.0
 20
194.90000915527
 30
0.0
 40
1.5
100
AcDbArc
 50
0.0
 51
89.99998201390964
  0
ARC
  5
16D
330
18
100
AcDbEntity
  8
PV0001_1
  6
Continuous
 48
0.5
370
    50
100
AcDbCircle
 10
-149.0
 20
194.90000915527
 30
0.0
 40
1.5
100
AcDbArc
 50
297.304990098971
 51
0.0
  0
ARC
  5
16E
330
18
100
AcDbEntity
  8
PV0001_1
  6
Continuous
 48
0.5
370
    50
100
AcDbCircle
 10
-151.69999694824
 20
192.80000305175
 30
0.0
 40
0.4000000059605
100
AcDbArc
 50
89.99998201390964
 51
179.9999640278192
  0
ARC
  5
16F
330
18
100
AcDbEntity
  8
PV0001_1
  6
Continuous
 48
0.5
370
    50
100
AcDbCircle
 10
-149.80000305175
 20
192.60000610351
 30
0.0
 40
0.6000000238419
100
AcDbArc
 50
0.0
 51
89.99998201390964
  0
ARC
  5
170
330
18
100
AcDbEntity
  8
PV0001_1
  6
Continuous
 48
0.5
370
    50
100
AcDbCircle
 10
-148.22016906738
 20
193.38941955566
 30
0.0
 40
0.2000000029802
100
AcDbArc
 50
117.3049472966005
 51
234.4267362404176
  0
ARC
  5
171
330
18
100
AcDbEntity
  8
PV0001_1
  6
Continuous
 48
0.5
370
    50
100
AcDbCircle
 10
-151.89999389648
 20
195.60000610351
 30
0.0
 40
0.2000000029802
100
AcDbArc
 50
89.99998201390964
 51
179.9999640278192
  0
ARC
  5
172
330
18
100
AcDbEntity
  8
PV0001_1
  6
Continuous
 48
0.5
370
    50
100
AcDbCircle
 10
-151.89999389648
 20
194.10000610351
 30
0.0
 40
0.2000000029802
100
AcDbArc
 50
179.9999776881987
 51
270.0000280040004
  0
ARC
  5
173
330
18
100
AcDbEntity
  8
PV0001_1
  6
Continuous
 48
0.5
370
    50
100
AcDbCircle
 10
-149.80000305175
 20
194.5
 30
0.0
 40
0.6000000238419
100
AcDbArc
 50
270.0000179860904
 51
0.0
  0
ARC
  5
174
330
18
100
AcDbEntity
  8
PV0001_1
  6
Continuous
 48
0.5
370
    50
100
AcDbCircle
 10
-149.80000305175
 20
195.20001220703
 30
0.0
 40
0.6000000238419
100
AcDbArc
 50
0.0
 51
89.99998201390964
  0
ARC
  5
175
330
18
100
AcDbEntity
  8
PV0001_1
  6
Continuous
 48
0.5
370
    50
100
AcDbCircle
 10
-145.80000305175
 20
193.0
 30
0.0
 40
1.399999976158099
100
AcDbArc
 50
179.9999776881987
 51
270.0000280040004
  0
ARC
  5
176
330
18
100
AcDbEntity
  8
PV0001_1
  6
Continuous
 48
0.5
370
    50
100
AcDbCircle
 10
-142.0
 20
193.0
 30
0.0
 40
1.399999976158099
100
AcDbArc
 50
270.0000179860904
 51
0.0
  0
ARC
  5
177
330
18
100
AcDbEntity
  8
PV0001_1
  6
Continuous
 48
0.5
370
    50
100
AcDbCircle
 10
-142.0
 20
195.0
 30
0.0
 40
1.399999976158099
100
AcDbArc
 50
0.0
 51
89.99998201390964
  0
ARC
  5
178
330
18
100
AcDbEntity
  8
PV0001_1
  6
Continuous
 48
0.5
370
    50
100
AcDbCircle
 10
-145.80000305175
 20
195.0
 30
0.0
 40
1.399999976158099
100
AcDbArc
 50
89.99998201390964
 51
179.9999640278192
  0
ARC
  5
179
330
18
100
AcDbEntity
  8
PV0001_1
  6
Continuous
 48
0.5
370
    50
100
AcDbCircle
 10
-144.80000305175
 20
195.0
 30
0.0
 40
0.8000000119209
100
AcDbArc
 50
89.99998201390964
 51
179.9999640278192
  0
ARC
  5
17A
330
18
100
AcDbEntity
  8
PV0001_1
  6
Continuous
 48
0.5
370
    50
100
AcDbCircle
 10
-144.80000305175
 20
193.20001220703
 30
0.0
 40
0.8000000119209
100
AcDbArc
 50
179.9999776881987
 51
270.0000280040004
  0
ARC
  5
17B
330
18
100
AcDbEntity
  8
PV0001_1
  6
Continuous
 48
0.5
370
    50
100
AcDbCircle
 10
-143.0
 20
193.20001220703
 30
0.0
 40
0.8000000119209
100
AcDbArc
 50
270.0000179860904
 51
0.0
  0
ARC
  5
17C
330
18
100
AcDbEntity
  8
PV0001_1
  6
Continuous
 48
0.5
370
    50
100
AcDbCircle
 10
-143.0
 20
195.0
 30
0.0
 40
0.8000000119209
100
AcDbArc
 50
0.0
 51
89.99998201390964
  0
ARC
  5
17D
330
18
100
AcDbEntity
  8
PV0001_1
  6
Continuous
 48
0.5
370
    50
100
AcDbCircle
 10
-138.39999389648
 20
195.60000610351
 30
0.0
 40
0.2000000029802
100
AcDbArc
 50
89.99998201390964
 51
179.9999640278192
  0
ARC
  5
17E
330
18
100
AcDbEntity
  8
PV0001_1
  6
Continuous
 48
0.5
370
    50
100
AcDbCircle
 10
-138.39999389648
 20
192.60000610351
 30
0.0
 40
0.2000000029802
100
AcDbArc
 50
179.9999776881987
 51
270.0000280040004
  0
ARC
  5
17F
330
18
100
AcDbEntity
  8
PV0001_1
  6
Continuous
 48
0.5
370
    50
100
AcDbCircle
 10
-136.19999694824
 20
193.20001220703
 30
0.0
 40
0.8000000119209
100
AcDbArc
 50
270.0000179860904
 51
0.0
  0
ARC
  5
180
330
18
100
AcDbEntity
  8
PV0001_1
  6
Continuous
 48
0.5
370
    50
100
AcDbCircle
 10
-136.19999694824
 20
195.0
 30
0.0
 40
0.8000000119209
100
AcDbArc
 50
0.0
 51
89.99998201390964
  0
ARC
  5
181
330
18
100
AcDbEntity
  8
PV0001_1
  6
Continuous
 48
0.5
370
    50
100
AcDbCircle
 10
-135.19999694824
 20
193.00001525878
 30
0.0
 40
1.399999976158099
100
AcDbArc
 50
270.0000179860904
 51
0.0
  0
ARC
  5
182
330
18
100
AcDbEntity
  8
PV0001_1
  6
Continuous
 48
0.5
370
    50
100
AcDbCircle
 10
-135.19999694824
 20
195.0
 30
0.0
 40
1.399999976158099
100
AcDbArc
 50
0.0
 51
89.99998201390964
  0
ARC
  5
183
330
18
100
AcDbEntity
  8
PV0001_1
  6
Continuous
 48
0.5
370
    50
100
AcDbCircle
 10
-131.32250976562
 20
193.60000610351
 30
0.0
 40
0.2000000029802
100
AcDbArc
 50
161.5650375711494
 51
270.000000683247
  0
ARC
  5
184
330
18
100
AcDbEntity
  8
PV0001_1
  6
Continuous
 48
0.5
370
    50
100
AcDbCircle
 10
-129.07748413085
 20
193.60000610351
 30
0.0
 40
0.2000000029802
100
AcDbArc
 50
270.0000179860904
 51
18.4348803528989
  0
ARC
  5
185
330
18
100
AcDbEntity
  8
PV0001_1
  6
Continuous
 48
0.5
370
    50
100
AcDbCircle
 10
-130.65585327148
 20
195.60000610351
 30
0.0
 40
0.2000000029802
100
AcDbArc
 50
89.99998201390964
 51
161.5651331937947
  0
ARC
  5
186
330
18
100
AcDbEntity
  8
PV0001_1
  6
Continuous
 48
0.5
370
    50
100
AcDbCircle
 10
-129.744140625
 20
195.60000610351
 30
0.0
 40
0.2000000029802
100
AcDbArc
 50
18.43505281517194
 51
89.99998201390964
  0
ARC
  5
187
330
18
100
AcDbEntity
  8
PV0001_1
  6
Continuous
 48
0.5
370
    50
100
AcDbCircle
 10
-131.7225036621
 20
192.40000915527
 30
0.0
 40
0.2000000029802
100
AcDbArc
 50
89.99998201390964
 51
161.5650102503904
  0
ARC
  5
188
330
18
100
AcDbEntity
  8
PV0001_1
  6
Continuous
 48
0.5
370
    50
100
AcDbCircle
 10
-128.67749023437
 20
192.40000915527
 30
0.0
 40
0.2000000029802
100
AcDbArc
 50
18.4348803528989
 51
89.99998201390964
  0
CIRCLE
  5
189
330
18
100
AcDbEntity
  8
PV0001_1
  6
Continuous
 48
0.5
370
   100
100
AcDbCircle
 10
69.399993896484
 20
193.99993896484
 30
0.0
 40
2.700000047683699
  0
CIRCLE
  5
18A
330
18
100
AcDbEntity
  8
PV0001_1
  6
Continuous
 48
0.5
370
   100
100
AcDbCircle
 10
69.399993896484
 20
193.99993896484
 30
0.0
 40
1.6200001239777
  0
CIRCLE
  5
18B
330
18
100
AcDbEntity
  8
PV0001_1
  6
Continuous
370
    50
100
AcDbCircle
 10
0.0
 20
0.0
 30
0.0
 40
121.50575256347
  0
CIRCLE
  5
18C
330
18
100
AcDbEntity
  8
PV0001_1
  6
CENTER2
370
    25
100
AcDbCircle
 10
0.0
 20
0.0
 30
0.0
 40
102.50001525878
  0
CIRCLE
  5
18D
330
18
100
AcDbEntity
  8
PV0001_1
  6
Continuous
370
    50
100
AcDbCircle
 10
0.0
 20
-102.49332427978
 30
0.0
 40
11.000002861022
  0
CIRCLE
  5
18E
330
18
100
AcDbEntity
  8
PV0001_1
  6
Continuous
370
    50
100
AcDbCircle
 10
0.0
 20
102.49332427978
 30
0.0
 40
11.000002861022
  0
CIRCLE
  5
18F
330
18
100
AcDbEntity
  8
PV0001_1
  6
Continuous
370
    50
100
AcDbCircle
 10
0.0
 20
102.49332427978
 30
0.0
 40
16.0
  0
CIRCLE
  5
190
330
18
100
AcDbEntity
  8
PV0001_1
  6
Continuous
370
    50
100
AcDbCircle
 10
0.0
 20
-102.49332427978
 30
0.0
 40
16.0
  0
CIRCLE
  5
191
330
18
100
AcDbEntity
  8
PV0001_1
  6
Continuous
 48
0.5
370
    50
100
AcDbCircle
 10
-102.5
 20
0.0
 30
0.0
 40
4.000609397888199
  0
CIRCLE
  5
192
330
18
100
AcDbEntity
  8
PV0001_1
  6
Continuous
370
    25
100
AcDbCircle
 10
-102.5
 20
0.0
 30
0.0
 40
5.0
  0
CIRCLE
  5
193
330
18
100
AcDbEntity
  8
PV0001_1
  6
Continuous
370
    50
100
AcDbCircle
 10
0.0
 20
0.0
 30
0.0
 40
50.0
  0
CIRCLE
  5
194
330
18
100
AcDbEntity
  8
PV0001_1
  6
Continuous
370
    50
100
AcDbCircle
 10
-88.767616271972
 20
51.25
 30
0.0
 40
11.0
  0
CIRCLE
  5
195
330
18
100
AcDbEntity
  8
PV0001_1
  6
Continuous
370
    50
100
AcDbCircle
 10
-88.76757812500001
 20
-51.250080108642
 30
0.0
 40
11.0
  0
CIRCLE
  5
196
330
18
100
AcDbEntity
  8
PV0001_1
  6
Continuous
370
    50
100
AcDbCircle
 10
88.767616271972
 20
-51.25
 30
0.0
 40
11.0
  0
CIRCLE
  5
197
330
18
100
AcDbEntity
  8
PV0001_1
  6
Continuous
370
    50
100
AcDbCircle
 10
88.76757812500001
 20
51.250080108642
 30
0.0
 40
11.0
  0
CIRCLE
  5
198
330
18
100
AcDbEntity
  8
PV0001_1
  6
Continuous
370
    50
100
AcDbCircle
 10
88.76757812500001
 20
51.250080108642
 30
0.0
 40
16.0
  0
CIRCLE
  5
199
330
18
100
AcDbEntity
  8
PV0001_1
  6
Continuous
370
    50
100
AcDbCircle
 10
-88.767616271972
 20
51.25
 30
0.0
 40
16.0
  0
CIRCLE
  5
19A
330
18
100
AcDbEntity
  8
PV0001_1
  6
Continuous
370
    50
100
AcDbCircle
 10
-88.76757812500001
 20
-51.250080108642
 30
0.0
 40
16.0
  0
CIRCLE
  5
19B
330
18
100
AcDbEntity
  8
PV0001_1
  6
Continuous
370
    50
100
AcDbCircle
 10
88.767616271972
 20
-51.25
 30
0.0
 40
16.0
  0
CIRCLE
  5
19C
330
18
100
AcDbEntity
  8
PV0001_1
  6
DASHED2
 48
0.5
370
    50
100
AcDbCircle
 10
395.0
 20
0.0
 30
0.0
 40
2.5
  0
ARC
  5
19D
330
18
100
AcDbEntity
  8
PV0001_1
  6
Continuous
 48
0.5
370
    50
100
AcDbCircle
 10
-130.65585327148
 20
-204.39999389648
 30
0.0
 40
0.2000000029802
100
AcDbArc
 50
89.99998201390964
 51
161.5651331937947
  0
ARC
  5
19E
330
18
100
AcDbEntity
  8
PV0001_1
  6
Continuous
 48
0.5
370
    50
100
AcDbCircle
 10
-129.07748413085
 20
-206.39999389648
 30
0.0
 40
0.2000000029802
100
AcDbArc
 50
270.0000179860904
 51
18.4348803528989
  0
ARC
  5
19F
330
18
100
AcDbEntity
  8
PV0001_1
  6
Continuous
 48
0.5
370
    50
100
AcDbCircle
 10
-131.32250976562
 20
-206.39999389648
 30
0.0
 40
0.2000000029802
100
AcDbArc
 50
161.5650375711494
 51
270.000000683247
  0
ARC
  5
1A0
330
18
100
AcDbEntity
  8
PV0001_1
  6
Continuous
 48
0.5
370
    50
100
AcDbCircle
 10
-135.19999694824
 20
-205.0
 30
0.0
 40
1.399999976158099
100
AcDbArc
 50
0.0
 51
89.99998201390964
  0
ARC
  5
1A1
330
18
100
AcDbEntity
  8
PV0001_1
  6
Continuous
 48
0.5
370
    50
100
AcDbCircle
 10
-135.19999694824
 20
-206.99998474121
 30
0.0
 40
1.399999976158099
100
AcDbArc
 50
270.0000179860904
 51
0.0
  0
ARC
  5
1A2
330
18
100
AcDbEntity
  8
PV0001_1
  6
Continuous
 48
0.5
370
    50
100
AcDbCircle
 10
-136.19999694824
 20
-205.0
 30
0.0
 40
0.8000000119209
100
AcDbArc
 50
0.0
 51
89.99998201390964
  0
ARC
  5
1A3
330
18
100
AcDbEntity
  8
PV0001_1
  6
Continuous
 48
0.5
370
    50
100
AcDbCircle
 10
-136.19999694824
 20
-206.79998779296
 30
0.0
 40
0.8000000119209
100
AcDbArc
 50
270.0000179860904
 51
0.0
  0
ARC
  5
1A4
330
18
100
AcDbEntity
  8
PV0001_1
  6
Continuous
 48
0.5
370
    50
100
AcDbCircle
 10
-138.39999389648
 20
-207.39999389648
 30
0.0
 40
0.2000000029802
100
AcDbArc
 50
179.9999776881987
 51
270.0000280040004
  0
ARC
  5
1A5
330
18
100
AcDbEntity
  8
PV0001_1
  6
Continuous
 48
0.5
370
    50
100
AcDbCircle
 10
-138.39999389648
 20
-204.39999389648
 30
0.0
 40
0.2000000029802
100
AcDbArc
 50
89.99998201390964
 51
179.9999640278192
  0
ARC
  5
1A6
330
18
100
AcDbEntity
  8
PV0001_1
  6
Continuous
 48
0.5
370
    50
100
AcDbCircle
 10
-143.0
 20
-205.0
 30
0.0
 40
0.8000000119209
100
AcDbArc
 50
0.0
 51
89.99998201390964
  0
ARC
  5
1A7
330
18
100
AcDbEntity
  8
PV0001_1
  6
Continuous
 48
0.5
370
    50
100
AcDbCircle
 10
-143.0
 20
-206.79998779296
 30
0.0
 40
0.8000000119209
100
AcDbArc
 50
270.0000179860904
 51
0.0
  0
ARC
  5
1A8
330
18
100
AcDbEntity
  8
PV0001_1
  6
Continuous
 48
0.5
370
    50
100
AcDbCircle
 10
-144.80000305175
 20
-206.79998779296
 30
0.0
 40
0.8000000119209
100
AcDbArc
 50
179.9999776881987
 51
270.0000280040004
  0
ARC
  5
1A9
330
18
100
AcDbEntity
  8
PV0001_1
  6
Continuous
 48
0.5
370
    50
100
AcDbCircle
 10
-144.80000305175
 20
-205.0
 30
0.0
 40
0.8000000119209
100
AcDbArc
 50
89.99998201390964
 51
179.9999640278192
  0
ARC
  5
1AA
330
18
100
AcDbEntity
  8
PV0001_1
  6
Continuous
 48
0.5
370
    50
100
AcDbCircle
 10
-145.80000305175
 20
-205.0
 30
0.0
 40
1.399999976158099
100
AcDbArc
 50
89.99998201390964
 51
179.9999640278192
  0
ARC
  5
1AB
330
18
100
AcDbEntity
  8
PV0001_1
  6
Continuous
 48
0.5
370
    50
100
AcDbCircle
 10
-142.0
 20
-205.0
 30
0.0
 40
1.399999976158099
100
AcDbArc
 50
0.0
 51
89.99998201390964
  0
ARC
  5
1AC
330
18
100
AcDbEntity
  8
PV0001_1
  6
Continuous
 48
0.5
370
    50
100
AcDbCircle
 10
-142.0
 20
-207.0
 30
0.0
 40
1.399999976158099
100
AcDbArc
 50
270.0000179860904
 51
0.0
  0
ARC
  5
1AD
330
18
100
AcDbEntity
  8
PV0001_1
  6
Continuous
 48
0.5
370
    50
100
AcDbCircle
 10
-145.80000305175
 20
-207.0
 30
0.0
 40
1.399999976158099
100
AcDbArc
 50
179.9999776881987
 51
270.0000280040004
  0
ARC
  5
1AE
330
18
100
AcDbEntity
  8
PV0001_1
  6
Continuous
 48
0.5
370
    50
100
AcDbCircle
 10
-149.80000305175
 20
-204.79998779296
 30
0.0
 40
0.6000000238419
100
AcDbArc
 50
0.0
 51
89.99998201390964
  0
ARC
  5
1AF
330
18
100
AcDbEntity
  8
PV0001_1
  6
Continuous
 48
0.5
370
    50
100
AcDbCircle
 10
-149.80000305175
 20
-205.5
 30
0.0
 40
0.6000000238419
100
AcDbArc
 50
270.0000179860904
 51
0.0
  0
ARC
  5
1B0
330
18
100
AcDbEntity
  8
PV0001_1
  6
Continuous
 48
0.5
370
    50
100
AcDbCircle
 10
-151.89999389648
 20
-205.89999389648
 30
0.0
 40
0.2000000029802
100
AcDbArc
 50
179.9999776881987
 51
270.0000280040004
  0
ARC
  5
1B1
330
18
100
AcDbEntity
  8
PV0001_1
  6
Continuous
 48
0.5
370
    50
100
AcDbCircle
 10
-151.89999389648
 20
-204.39999389648
 30
0.0
 40
0.2000000029802
100
AcDbArc
 50
89.99998201390964
 51
179.9999640278192
  0
ARC
  5
1B2
330
18
100
AcDbEntity
  8
PV0001_1
  6
Continuous
 48
0.5
370
    50
100
AcDbCircle
 10
-148.22016906738
 20
-206.61058044433
 30
0.0
 40
0.2000000029802
100
AcDbArc
 50
117.3049472966005
 51
234.4267362404176
  0
ARC
  5
1B3
330
18
100
AcDbEntity
  8
PV0001_1
  6
Continuous
 48
0.5
370
    50
100
AcDbCircle
 10
-149.80000305175
 20
-207.39999389648
 30
0.0
 40
0.6000000238419
100
AcDbArc
 50
0.0
 51
89.99998201390964
  0
ARC
  5
1B4
330
18
100
AcDbEntity
  8
PV0001_1
  6
Continuous
 48
0.5
370
    50
100
AcDbCircle
 10
-151.69999694824
 20
-207.19999694824
 30
0.0
 40
0.4000000059605
100
AcDbArc
 50
89.99998201390964
 51
179.9999640278192
  0
ARC
  5
1B5
330
18
100
AcDbEntity
  8
PV0001_1
  6
Continuous
 48
0.5
370
    50
100
AcDbCircle
 10
-149.0
 20
-205.09999084472
 30
0.0
 40
1.5
100
AcDbArc
 50
297.304990098971
 51
0.0
  0
ARC
  5
1B6
330
18
100
AcDbEntity
  8
PV0001_1
  6
Continuous
 48
0.5
370
    50
100
AcDbCircle
 10
-149.0
 20
-205.09999084472
 30
0.0
 40
1.5
100
AcDbArc
 50
0.0
 51
89.99998201390964
  0
ARC
  5
1B7
330
18
100
AcDbEntity
  8
PV0001_1
  6
Continuous
 48
0.5
370
    50
100
AcDbCircle
 10
-149.5
 20
-208.39999389648
 30
0.0
 40
2.0
100
AcDbArc
 50
0.0
 51
54.42673123145972
  0
ARC
  5
1B8
330
18
100
AcDbEntity
  8
PV0001_1
  6
Continuous
 48
0.5
370
    50
100
AcDbCircle
 10
-158.39999389648
 20
-207.0
 30
0.0
 40
0.6000000238419
100
AcDbArc
 50
179.9999776881987
 51
270.0000280040004
  0
ARC
  5
1B9
330
18
100
AcDbEntity
  8
PV0001_1
  6
Continuous
 48
0.5
370
    50
100
AcDbCircle
 10
-156.19999694824
 20
-207.0
 30
0.0
 40
0.6000000238419
100
AcDbArc
 50
270.0000179860904
 51
0.0
  0
ARC
  5
1BA
330
18
100
AcDbEntity
  8
PV0001_1
  6
Continuous
 48
0.5
370
    50
100
AcDbCircle
 10
-155.39999389648
 20
-207.19999694824
 30
0.0
 40
1.2000000476837
100
AcDbArc
 50
270.0000179860904
 51
0.0
  0
ARC
  5
1BB
330
18
100
AcDbEntity
  8
PV0001_1
  6
Continuous
 48
0.5
370
    50
100
AcDbCircle
 10
-159.19999694824
 20
-207.19999694824
 30
0.0
 40
1.2000000476837
100
AcDbArc
 50
179.9999776881987
 51
270.0000280040004
  0
ARC
  5
1BC
330
18
100
AcDbEntity
  8
PV0001_1
  6
Continuous
 48
0.5
370
    50
100
AcDbCircle
 10
-165.19999694824
 20
-206.19999694824
 30
0.0
 40
0.2000000029802
100
AcDbArc
 50
89.99998201390964
 51
179.9999640278192
  0
ARC
  5
1BD
330
18
100
AcDbEntity
  8
PV0001_1
  6
Continuous
 48
0.5
370
    50
100
AcDbCircle
 10
-165.19999694824
 20
-205.19999694824
 30
0.0
 40
0.2000000029802
100
AcDbArc
 50
179.9999776881987
 51
270.0000280040004
  0
ARC
  5
1BE
330
18
100
AcDbEntity
  8
PV0001_1
  6
Continuous
 48
0.5
370
    50
100
AcDbCircle
 10
-164.30000305175
 20
-206.19999694824
 30
0.0
 40
0.2000000029802
100
AcDbArc
 50
36.86990755486351
 51
89.99998201390964
  0
ARC
  5
1BF
330
18
100
AcDbEntity
  8
PV0001_1
  6
Continuous
 48
0.5
370
    50
100
AcDbCircle
 10
-164.29782104492
 20
-205.19999694824
 30
0.0
 40
0.2000000029802
100
AcDbArc
 50
270.0000179860904
 51
322.1249959578259
  0
ARC
  5
1C0
330
18
100
AcDbEntity
  8
PV0001_1
  6
Continuous
 48
0.5
370
    50
100
AcDbCircle
 10
-162.5276184082
 20
-205.61045837402
 30
0.0
 40
0.2000000029802
100
AcDbArc
 50
135.0000549831359
 51
220.6012585677736
  0
ARC
  5
1C1
330
18
100
AcDbEntity
  8
PV0001_1
  6
Continuous
 48
0.5
370
    50
100
AcDbCircle
 10
-129.744140625
 20
-204.39999389648
 30
0.0
 40
0.2000000029802
100
AcDbArc
 50
18.43505281517194
 51
89.99998201390964
  0
ARC
  5
1C2
330
18
100
AcDbEntity
  8
PV0001_1
  6
Continuous
 48
0.5
370
    50
100
AcDbCircle
 10
-131.7225036621
 20
-207.59999084472
 30
0.0
 40
0.2000000029802
100
AcDbArc
 50
89.99998201390964
 51
161.5650102503904
  0
ARC
  5
1C3
330
18
100
AcDbEntity
  8
PV0001_1
  6
Continuous
 48
0.5
370
    50
100
AcDbCircle
 10
-128.67749023437
 20
-207.59999084472
 30
0.0
 40
0.2000000029802
100
AcDbArc
 50
18.4348803528989
 51
89.99998201390964
  0
CIRCLE
  5
1C4
330
18
100
AcDbEntity
  8
PV0001_1
  6
Continuous
 48
0.5
370
   100
100
AcDbCircle
 10
69.399993896484
 20
-206.00006103515
 30
0.0
 40
1.6200001239777
  0
CIRCLE
  5
1C5
330
18
100
AcDbEntity
  8
PV0001_1
  6
Continuous
 48
0.5
370
   100
100
AcDbCircle
 10
69.399993896484
 20
-206.00006103515
 30
0.0
 40
2.700000047683699
  0
ARC
  5
1C6
330
18
100
AcDbEntity
  8
PV0001_1
  6
Continuous
370
    50
100
AcDbCircle
 10
0.0
 20
-400.0
 30
0.0
 40
121.50575256347
100
AcDbArc
 50
41.50171496314056
 51
318.4982233377855
  0
CIRCLE
  5
1C7
330
18
100
AcDbEntity
  8
PV0001_1
  6
CENTER2
370
    25
100
AcDbCircle
 10
0.0
 20
-400.0
 30
0.0
 40
102.50001525878
  0
CIRCLE
  5
1C8
330
18
100
AcDbEntity
  8
PV0001_1
  6
Continuous
370
    50
100
AcDbCircle
 10
0.0
 20
-502.49331665039
 30
0.0
 40
11.000002861022
  0
CIRCLE
  5
1C9
330
18
100
AcDbEntity
  8
PV0001_1
  6
Continuous
370
    50
100
AcDbCircle
 10
0.0
 20
-297.5066833496
 30
0.0
 40
11.000002861022
  0
CIRCLE
  5
1CA
330
18
100
AcDbEntity
  8
PV0001_1
  6
Continuous
370
    50
100
AcDbCircle
 10
0.0
 20
-297.5066833496
 30
0.0
 40
16.0
  0
CIRCLE
  5
1CB
330
18
100
AcDbEntity
  8
PV0001_1
  6
Continuous
370
    50
100
AcDbCircle
 10
0.0
 20
-502.49331665039
 30
0.0
 40
16.0
  0
CIRCLE
  5
1CC
330
18
100
AcDbEntity
  8
PV0001_1
  6
Continuous
 48
0.5
370
    50
100
AcDbCircle
 10
-102.5
 20
-400.0
 30
0.0
 40
4.000609397888199
  0
CIRCLE
  5
1CD
330
18
100
AcDbEntity
  8
PV0001_1
  6
Continuous
370
    25
100
AcDbCircle
 10
-102.5
 20
-400.0
 30
0.0
 40
5.0
  0
CIRCLE
  5
1CE
330
18
100
AcDbEntity
  8
PV0001_1
  6
Continuous
370
    50
100
AcDbCircle
 10
0.0
 20
-400.0
 30
0.0
 40
50.0
  0
CIRCLE
  5
1CF
330
18
100
AcDbEntity
  8
PV0001_1
  6
Continuous
370
    50
100
AcDbCircle
 10
-72.478477478027
 20
-327.52157592773
 30
0.0
 40
11.0
  0
CIRCLE
  5
1D0
330
18
100
AcDbEntity
  8
PV0001_1
  6
Continuous
370
    50
100
AcDbCircle
 10
-72.478393554687
 20
-472.478515625
 30
0.0
 40
11.0
  0
CIRCLE
  5
1D1
330
18
100
AcDbEntity
  8
PV0001_1
  6
Continuous
370
    50
100
AcDbCircle
 10
72.478477478027
 20
-472.4784240722599
 30
0.0
 40
11.0
  0
CIRCLE
  5
1D2
330
18
100
AcDbEntity
  8
PV0001_1
  6
Continuous
370
    50
100
AcDbCircle
 10
72.478393554687
 20
-327.521484375
 30
0.0
 40
11.0
  0
CIRCLE
  5
1D3
330
18
100
AcDbEntity
  8
PV0001_1
  6
Continuous
370
    50
100
AcDbCircle
 10
72.478393554687
 20
-327.521484375
 30
0.0
 40
16.0
  0
CIRCLE
  5
1D4
330
18
100
AcDbEntity
  8
PV0001_1
  6
Continuous
370
    50
100
AcDbCircle
 10
-72.478477478027
 20
-327.52157592773
 30
0.0
 40
16.0
  0
CIRCLE
  5
1D5
330
18
100
AcDbEntity
  8
PV0001_1
  6
Continuous
370
    50
100
AcDbCircle
 10
-72.478393554687
 20
-472.478515625
 30
0.0
 40
16.0
  0
CIRCLE
  5
1D6
330
18
100
AcDbEntity
  8
PV0001_1
  6
Continuous
370
    50
100
AcDbCircle
 10
72.478477478027
 20
-472.4784240722599
 30
0.0
 40
16.0
  0
CIRCLE
  5
1D7
330
18
100
AcDbEntity
  8
PV0001_1
  6
DASHED2
 48
0.5
370
    50
100
AcDbCircle
 10
395.0
 20
-400.0
 30
0.0
 40
2.5
  0
MTEXT
  5
1D8
330
18
100
AcDbEntity
  8
PV0001_1
 62
     7
370
    25
100
AcDbMText
 10
-120.1715061068478
 20
198.0
 30
0.0
 40
3.2
 41
0.0
 71
     4
 72
     5
  1
\T1.40;\W0.61;FILENAME
 73
     1
 44
1.0
1001
ACAD
1000
MTEXTBEGIN
1070
    73
1070
     1
1070
    44
1040
1.0
1070
    74
1070
     0
1000
MTEXTEND
  0
MTEXT
  5
1D9
330
18
100
AcDbEntity
  8
PV0001_1
 62
     7
370
    25
100
AcDbMText
 10
-104.4572560787144
 20
192.5
 30
0.0
 40
4.799999999999999
 41
0.0
 71
     4
 72
     5
  1
\T1.40;\W0.61;GRA020FS
 73
     1
 44
1.0
1001
ACAD
1000
MTEXTBEGIN
1070
    73
1070
     1
1070
    44
1040
1.0
1070
    74
1070
     0
1000
MTEXTEND
  0
MTEXT
  5
1DA
330
18
100
AcDbEntity
  8
PV0001_1
 62
     7
370
    25
100
AcDbMText
 10
-58.17150610685285
 20
198.0
 30
0.0
 40
3.2
 41
0.0
 71
     4
 72
     5
  1
\T1.40;\W0.61;MODEL
 73
     1
 44
1.0
1001
ACAD
1000
MTEXTBEGIN
1070
    73
1070
     1
1070
    44
1040
1.0
1070
    74
1070
     0
1000
MTEXTEND
  0
MTEXT
  5
1DB
330
18
100
AcDbEntity
  8
PV0001_1
 62
     7
370
    25
100
AcDbMText
 10
-50.45725607871947
 20
192.5
 30
0.0
 40
4.799999999999999
 41
0.0
 71
     4
 72
     5
  1
\T1.40;\W0.61;GRA020FS-CAPR
 73
     1
 44
1.0
1001
ACAD
1000
MTEXTBEGIN
1070
    73
1070
     1
1070
    44
1040
1.0
1070
    74
1070
     0
1000
MTEXTEND
  0
MTEXT
  5
1DC
330
18
100
AcDbEntity
  8
PV0001_1
 62
     7
370
    25
100
AcDbMText
 10
-50.45725607871947
 20
-207.5
 30
0.0
 40
4.799999999999999
 41
0.0
 71
     4
 72
     5
  1
\T1.40;\W0.61;GRA020FS-DAPR
 73
     1
 44
1.0
1001
ACAD
1000
MTEXTBEGIN
1070
    73
1070
     1
1070
    44
1040
1.0
1070
    74
1070
     0
1000
MTEXTEND
  0
MTEXT
  5
1DD
330
18
100
AcDbEntity
  8
PV0001_1
 62
     7
370
    25
100
AcDbMText
 10
-58.17150610685285
 20
-202.0
 30
0.0
 40
3.2
 41
0.0
 71
     4
 72
     5
  1
\T1.40;\W0.61;MODEL
 73
     1
 44
1.0
1001
ACAD
1000
MTEXTBEGIN
1070
    73
1070
     1
1070
    44
1040
1.0
1070
    74
1070
     0
1000
MTEXTEND
  0
MTEXT
  5
1DE
330
18
100
AcDbEntity
  8
PV0001_1
 62
     7
370
    25
100
AcDbMText
 10
-104.4572560787144
 20
-207.5
 30
0.0
 40
4.799999999999999
 41
0.0
 71
     4
 72
     5
  1
\T1.40;\W0.61;GRA020FS
 73
     1
 44
1.0
1001
ACAD
1000
MTEXTBEGIN
1070
    73
1070
     1
1070
    44
1040
1.0
1070
    74
1070
     0
1000
MTEXTEND
  0
MTEXT
  5
1DF
330
18
100
AcDbEntity
  8
PV0001_1
 62
     7
370
    25
100
AcDbMText
 10
-120.1715061068478
 20
-202.0
 30
0.0
 40
3.2
 41
0.0
 71
     4
 72
     5
  1
\T1.40;\W0.61;FILENAME
 73
     1
 44
1.0
1001
ACAD
1000
MTEXTBEGIN
1070
    73
1070
     1
1070
    44
1040
1.0
1070
    74
1070
     0
1000
MTEXTEND
  0
ENDSEC
  0
SECTION
  2
OBJECTS
  0
DICTIONARY
  5
C
330
0
100
AcDbDictionary
281
     1
  3
ACAD_COLOR
350
217
  3
ACAD_GROUP
350
D
  3
ACAD_LAYOUT
350
5E
  3
ACAD_MATERIAL
350
216
  3
ACAD_MLINESTYLE
350
1B
  3
ACAD_PLOTSETTINGS
350
5F
  3
ACAD_PLOTSTYLENAME
350
5C
  3
ACAD_TABLESTYLE
350
218
  3
ACDBHEADERROUNDTRIPXREC
350
4C4
  3
AcDbVariableDictionary
350
2D8
  3
AcmDictionary
350
277
  3
AMG
350
21F
  3
AMGSNAPSETTINGS
350
2CB
  3
SAKAE_DICT
350
1E0
  0
DICTIONARY
  5
20F
330
18
100
AcDbDictionary
280
     1
281
     1
  3
ACAD_LAYOUTSELFREF
360
210
  0
DICTIONARY
  5
20D
330
15
100
AcDbDictionary
280
     1
281
     1
  3
ACAD_LAYOUTSELFREF
360
20E
  0
DICTIONARY
  5
217
102
{ACAD_REACTORS
330
C
102
}
330
C
100
AcDbDictionary
281
     1
  0
DICTIONARY
  5
D
102
{ACAD_REACTORS
330
C
102
}
330
C
100
AcDbDictionary
281
     1
  0
DICTIONARY
  5
5E
102
{ACAD_REACTORS
330
C
102
}
330
C
100
AcDbDictionary
281
     1
  3
Model
350
60
  3
ﾚｲｱｳﾄ1
350
61
  0
DICTIONARY
  5
216
102
{ACAD_REACTORS
330
C
102
}
330
C
100
AcDbDictionary
281
     1
  0
DICTIONARY
  5
1B
102
{ACAD_REACTORS
330
C
102
}
330
C
100
AcDbDictionary
281
     1
  3
STANDARD
350
1C
  0
DICTIONARY
  5
5F
102
{ACAD_REACTORS
330
C
102
}
330
C
100
AcDbDictionary
281
     1
  0
ACDBDICTIONARYWDFLT
  5
5C
102
{ACAD_REACTORS
330
C
102
}
330
C
100
AcDbDictionary
281
     1
  3
Normal
350
5D
100
AcDbDictionaryWithDefault
340
5D
1001
ACAD
1000
TREAT_AS_HARD
1070
     0
  0
DICTIONARY
  5
218
102
{ACAD_REACTORS
330
C
102
}
330
C
100
AcDbDictionary
281
     1
  3
Standard
350
219
  0
DICTIONARY
  5
4C4
102
{ACAD_REACTORS
330
C
102
}
330
C
100
AcDbDictionary
281
     1
  0
DICTIONARY
  5
2D8
102
{ACAD_REACTORS
330
C
102
}
330
C
100
AcDbDictionary
281
     1
  3
CTABLESTYLE
350
2D9
  3
DIMASSOC
350
2DA
  3
PROJECTNAME
350
2DB
  0
DICTIONARY
  5
277
102
{ACAD_REACTORS
330
C
102
}
330
C
100
AcDbDictionary
281
     1
  3
AcmStdDictionary
350
282
  3
AMDTSECTSYM_ARROWCOLOR
350
2A0
  0
DICTIONARY
  5
21F
102
{ACAD_REACTORS
330
C
102
}
330
C
100
AcDbDictionary
281
     1
  0
DICTIONARY
  5
2CB
102
{ACAD_REACTORS
330
C
102
}
330
C
100
AcDbDictionary
281
     1
  0
DICTIONARY
  5
1E0
102
{ACAD_REACTORS
330
C
102
}
330
C
100
AcDbDictionary
281
     1
  3
XREC1
350
1E1
  0
XRECORD
  5
210
102
{ACAD_REACTORS
330
20F
102
}
330
20F
100
AcDbXrecord
280
     1
340
18
  0
XRECORD
  5
20E
102
{ACAD_REACTORS
330
20D
102
}
330
20D
100
AcDbXrecord
280
     1
340
15
  0
LAYOUT
  5
60
102
{ACAD_XDICTIONARY
360
4C5
102
}
102
{ACAD_REACTORS
330
5E
102
}
330
5E
100
AcDbPlotSettings
  1

  2
none_device
  4
ANSI_A_(8.50_x_11.00_Inches)
  6

 40
6.349999904632568
 41
19.04999923706055
 42
6.350006103515625
 43
19.04998779296875
 44
215.8999938964844
 45
279.3999938964844
 46
0.0
 47
0.0
 48
0.0
 49
0.0
140
0.0
141
0.0
142
1.0
143
1.0
 70
 11936
 72
     0
 73
     1
 74
     0
  7

 75
     0
147
1.0
148
1.166901962778297
149
-544.7787025703799
100
AcDbLayout
  1
Model
 70
     1
 71
     0
 10
0.0
 20
0.0
 11
12.0
 21
9.0
 12
0.0
 22
0.0
 32
0.0
 14
0.0
 24
0.0
 34
0.0
 15
0.0
 25
0.0
 35
0.0
146
0.0
 13
0.0
 23
0.0
 33
0.0
 16
1.0
 26
0.0
 36
0.0
 17
0.0
 27
1.0
 37
0.0
 76
     0
330
18
  0
LAYOUT
  5
61
102
{ACAD_XDICTIONARY
360
4C7
102
}
102
{ACAD_REACTORS
330
5E
102
}
330
5E
100
AcDbPlotSettings
  1

  2
\\BLUEWAVE2\EPSON LP-9200SX
  4

  6

 40
0.0
 41
0.0
 42
0.0
 43
0.0
 44
0.0
 45
0.0
 46
0.0
 47
0.0
 48
0.0
 49
0.0
140
0.0
141
0.0
142
1.0
143
1.0
 70
   688
 72
     0
 73
     0
 74
     5
  7

 75
    16
147
1.0
148
0.0
149
0.0
100
AcDbLayout
  1
ﾚｲｱｳﾄ1
 70
     1
 71
     1
 10
0.0
 20
0.0
 11
420.0
 21
297.0
 12
0.0
 22
0.0
 32
0.0
 14
1.000000000000000E+20
 24
1.000000000000000E+20
 34
1.000000000000000E+20
 15
-1.000000000000000E+20
 25
-1.000000000000000E+20
 35
-1.000000000000000E+20
146
0.0
 13
0.0
 23
0.0
 33
0.0
 16
1.0
 26
0.0
 36
0.0
 17
0.0
 27
1.0
 37
0.0
 76
     0
330
15
  0
MLINESTYLE
  5
1C
102
{ACAD_REACTORS
330
1B
102
}
330
1B
100
AcDbMlineStyle
  2
STANDARD
 70
     0
  3

 62
   256
 51
90.0
 52
90.0
 71
     2
 49
0.5
 62
   256
  6
BYLAYER
 49
-0.5
 62
   256
  6
BYLAYER
  0
ACDBPLACEHOLDER
  5
5D
102
{ACAD_REACTORS
330
5C
102
}
330
5C
  0
TABLESTYLE
  5
219
102
{ACAD_REACTORS
330
218
102
}
330
218
100
AcDbTableStyle
  3
Standard
 70
     0
 71
     0
 40
1.5
 41
1.5
280
     0
281
     0
  7
STANDARD
140
4.5
170
     2
 62
     0
 63
     7
283
     0
274
    -2
284
     1
 64
     0
275
    -2
285
     1
 65
     0
276
    -2
286
     1
 66
     0
277
    -2
287
     1
 67
     0
278
    -2
288
     1
 68
     0
279
    -2
289
     1
 69
     0
  7
STANDARD
140
6.0
170
     5
 62
     0
 63
     7
283
     0
274
    -2
284
     1
 64
     0
275
    -2
285
     1
 65
     0
276
    -2
286
     1
 66
     0
277
    -2
287
     1
 67
     0
278
    -2
288
     1
 68
     0
279
    -2
289
     1
 69
     0
  7
STANDARD
140
4.5
170
     5
 62
     0
 63
     7
283
     0
274
    -2
284
     1
 64
     0
275
    -2
285
     1
 65
     0
276
    -2
286
     1
 66
     0
277
    -2
287
     1
 67
     0
278
    -2
288
     1
 68
     0
279
    -2
289
     1
 69
     0
  0
DICTIONARYVAR
  5
2D9
102
{ACAD_REACTORS
330
2D8
102
}
330
2D8
100
DictionaryVariables
280
     0
  1
STANDARD
  0
DICTIONARYVAR
  5
2DA
102
{ACAD_REACTORS
330
2D8
102
}
330
2D8
100
DictionaryVariables
280
     0
  1
1
  0
DICTIONARYVAR
  5
2DB
102
{ACAD_REACTORS
330
2D8
102
}
330
2D8
100
DictionaryVariables
280
     0
  1

  0
DICTIONARY
  5
282
102
{ACAD_REACTORS
330
277
102
}
330
277
100
AcDbDictionary
281
     1
  0
XRECORD
  5
2A0
102
{ACAD_REACTORS
330
277
102
}
330
277
100
AcDbXrecord
280
     1
 90
-1023410169
  0
XRECORD
  5
1E1
102
{ACAD_REACTORS
330
1E0
102
}
330
1E0
100
AcDbXrecord
280
     1
  1
PV
 40
1.0
 50
0.0
 51
0.0
 52
0.0
 53
0.0
  0
DICTIONARY
  5
4C5
330
60
100
AcDbDictionary
280
     1
281
     1
  3
ACAD_XREC_ROUNDTRIP
360
4C6
  0
DICTIONARY
  5
4C7
330
61
100
AcDbDictionary
280
     1
281
     1
  3
ACAD_XREC_ROUNDTRIP
360
4C8
  0
XRECORD
  5
4C6
102
{ACAD_REACTORS
330
4C5
102
}
330
4C5
100
AcDbXrecord
280
     1
102
SHADEPLOT
 70
     0
102
SHADEPLOTRESLEVEL
 70
     2
102
SHADEPLOTCUSTOMDPI
 70
   300
  0
XRECORD
  5
4C8
102
{ACAD_REACTORS
330
4C7
102
}
330
4C7
100
AcDbXrecord
280
     1
102
SHADEPLOT
 70
     0
102
SHADEPLOTRESLEVEL
 70
     2
102
SHADEPLOTCUSTOMDPI
 70
   300
  0
ENDSEC
  0
EOF
