  0
SECTION
  2
HEADER
  9
$ACADVER
  1
AC1015
  9
$ACADMAINTVER
 70
    20
  9
$DWGCODEPAGE
  3
ANSI_932
  9
$INSBASE
 10
0.0
 20
0.0
 30
0.0
  9
$EXTMIN
 10
-90.01803451266368
 20
-138.5084527242096
 30
-0.0015258207003583
  9
$EXTMAX
 10
501.0180372647218
 20
138.5084540140913
 30
0.0000000349246037
  9
$LIMMIN
 10
0.0
 20
0.0
  9
$LIMMAX
 10
0.0
 20
0.0
  9
$ORTHOMODE
 70
     0
  9
$REGENMODE
 70
     1
  9
$FILLMODE
 70
     1
  9
$QTEXTMODE
 70
     0
  9
$MIRRTEXT
 70
     1
  9
$LTSCALE
 40
1.0
  9
$ATTMODE
 70
     1
  9
$TEXTSIZE
 40
2.5
  9
$TRACEWID
 40
1.0
  9
$TEXTSTYLE
  7
CONVERT
  9
$CLAYER
  8
0
  9
$CELTYPE
  6
BYLAYER
  9
$CECOLOR
 62
   256
  9
$CELTSCALE
 40
1.0
  9
$DISPSILH
 70
     0
  9
$DIMSCALE
 40
1.0
  9
$DIMASZ
 40
3.0
  9
$DIMEXO
 40
1.0
  9
$DIMDLI
 40
7.0
  9
$DIMRND
 40
0.0
  9
$DIMDLE
 40
0.0
  9
$DIMEXE
 40
2.0
  9
$DIMTP
 40
0.0
  9
$DIMTM
 40
0.0
  9
$DIMTXT
 40
2.799999999999998
  9
$DIMCEN
 40
0.0
  9
$DIMTSZ
 40
0.0
  9
$DIMTOL
 70
     0
  9
$DIMLIM
 70
     0
  9
$DIMTIH
 70
     0
  9
$DIMTOH
 70
     0
  9
$DIMSE1
 70
     0
  9
$DIMSE2
 70
     0
  9
$DIMTAD
 70
     1
  9
$DIMZIN
 70
     0
  9
$DIMBLK
  1

  9
$DIMASO
 70
     1
  9
$DIMSHO
 70
     1
  9
$DIMPOST
  1

  9
$DIMAPOST
  1

  9
$DIMALT
 70
     0
  9
$DIMALTD
 70
     4
  9
$DIMALTF
 40
0.0394
  9
$DIMLFAC
 40
1.0
  9
$DIMTOFL
 70
     1
  9
$DIMTVP
 40
0.0
  9
$DIMTIX
 70
     0
  9
$DIMSOXD
 70
     0
  9
$DIMSAH
 70
     1
  9
$DIMBLK1
  1
Open30
  9
$DIMBLK2
  1
Open30
  9
$DIMSTYLE
  2
STANDARD
  9
$DIMCLRD
 70
    44
  9
$DIMCLRE
 70
    44
  9
$DIMCLRT
 70
    44
  9
$DIMTFAC
 40
1.0
  9
$DIMGAP
 40
0.7
  9
$DIMJUST
 70
     0
  9
$DIMSD1
 70
     0
  9
$DIMSD2
 70
     0
  9
$DIMTOLJ
 70
     1
  9
$DIMTZIN
 70
     0
  9
$DIMALTZ
 70
     0
  9
$DIMALTTZ
 70
     0
  9
$DIMUPT
 70
     0
  9
$DIMDEC
 70
     3
  9
$DIMTDEC
 70
     3
  9
$DIMALTU
 70
     8
  9
$DIMALTTD
 70
     4
  9
$DIMTXSTY
  7
STANDARD
  9
$DIMAUNIT
 70
     0
  9
$DIMADEC
 70
     0
  9
$DIMALTRND
 40
0.0
  9
$DIMAZIN
 70
     0
  9
$DIMDSEP
 70
    46
  9
$DIMATFIT
 70
     0
  9
$DIMFRAC
 70
     0
  9
$DIMLDRBLK
  1
Open30
  9
$DIMLUNIT
 70
     2
  9
$DIMLWD
 70
    -2
  9
$DIMLWE
 70
    -2
  9
$DIMTMOVE
 70
     0
  9
$LUNITS
 70
     2
  9
$LUPREC
 70
     4
  9
$SKETCHINC
 40
1.0
  9
$FILLETRAD
 40
10.0
  9
$AUNITS
 70
     0
  9
$AUPREC
 70
     0
  9
$MENU
  1
.
  9
$ELEVATION
 40
0.0
  9
$PELEVATION
 40
0.0
  9
$THICKNESS
 40
0.0
  9
$LIMCHECK
 70
     0
  9
$CHAMFERA
 40
10.0
  9
$CHAMFERB
 40
10.0
  9
$CHAMFERC
 40
20.0
  9
$CHAMFERD
 40
0.0
  9
$SKPOLY
 70
     0
  9
$TDCREATE
 40
2451067.751276933
  9
$TDUCREATE
 40
2451067.376276933
  9
$TDUPDATE
 40
2454208.450206643
  9
$TDUUPDATE
 40
2454208.075206643
  9
$TDINDWG
 40
0.0731429977
  9
$TDUSRTIMER
 40
0.0731428125
  9
$USRTIMER
 70
     1
  9
$ANGBASE
 50
0.0
  9
$ANGDIR
 70
     0
  9
$PDMODE
 70
     1
  9
$PDSIZE
 40
0.0
  9
$PLINEWID
 40
0.0
  9
$SPLFRAME
 70
     0
  9
$SPLINETYPE
 70
     6
  9
$SPLINESEGS
 70
     8
  9
$HANDSEED
  5
CE3
  9
$SURFTAB1
 70
     6
  9
$SURFTAB2
 70
     6
  9
$SURFTYPE
 70
     6
  9
$SURFU
 70
     6
  9
$SURFV
 70
     6
  9
$UCSBASE
  2

  9
$UCSNAME
  2

  9
$UCSORG
 10
0.0
 20
0.0
 30
0.0
  9
$UCSXDIR
 10
1.0
 20
0.0
 30
0.0
  9
$UCSYDIR
 10
0.0
 20
1.0
 30
0.0
  9
$UCSORTHOREF
  2

  9
$UCSORTHOVIEW
 70
     0
  9
$UCSORGTOP
 10
0.0
 20
0.0
 30
0.0
  9
$UCSORGBOTTOM
 10
0.0
 20
0.0
 30
0.0
  9
$UCSORGLEFT
 10
0.0
 20
0.0
 30
0.0
  9
$UCSORGRIGHT
 10
0.0
 20
0.0
 30
0.0
  9
$UCSORGFRONT
 10
0.0
 20
0.0
 30
0.0
  9
$UCSORGBACK
 10
0.0
 20
0.0
 30
0.0
  9
$PUCSBASE
  2

  9
$PUCSNAME
  2

  9
$PUCSORG
 10
0.0
 20
0.0
 30
0.0
  9
$PUCSXDIR
 10
1.0
 20
0.0
 30
0.0
  9
$PUCSYDIR
 10
0.0
 20
1.0
 30
0.0
  9
$PUCSORTHOREF
  2

  9
$PUCSORTHOVIEW
 70
     0
  9
$PUCSORGTOP
 10
0.0
 20
0.0
 30
0.0
  9
$PUCSORGBOTTOM
 10
0.0
 20
0.0
 30
0.0
  9
$PUCSORGLEFT
 10
0.0
 20
0.0
 30
0.0
  9
$PUCSORGRIGHT
 10
0.0
 20
0.0
 30
0.0
  9
$PUCSORGFRONT
 10
0.0
 20
0.0
 30
0.0
  9
$PUCSORGBACK
 10
0.0
 20
0.0
 30
0.0
  9
$USERI1
 70
     0
  9
$USERI2
 70
     0
  9
$USERI3
 70
     0
  9
$USERI4
 70
     0
  9
$USERI5
 70
     0
  9
$USERR1
 40
0.0
  9
$USERR2
 40
0.0
  9
$USERR3
 40
0.0
  9
$USERR4
 40
0.0
  9
$USERR5
 40
0.0
  9
$WORLDVIEW
 70
     1
  9
$SHADEDGE
 70
     3
  9
$SHADEDIF
 70
    70
  9
$TILEMODE
 70
     1
  9
$MAXACTVP
 70
    48
  9
$PINSBASE
 10
0.0
 20
0.0
 30
0.0
  9
$PLIMCHECK
 70
     0
  9
$PEXTMIN
 10
1.000000000000000E+20
 20
1.000000000000000E+20
 30
1.000000000000000E+20
  9
$PEXTMAX
 10
-1.000000000000000E+20
 20
-1.000000000000000E+20
 30
-1.000000000000000E+20
  9
$PLIMMIN
 10
0.0
 20
0.0
  9
$PLIMMAX
 10
420.0
 20
297.0
  9
$UNITMODE
 70
     0
  9
$VISRETAIN
 70
     1
  9
$PLINEGEN
 70
     0
  9
$PSLTSCALE
 70
     1
  9
$TREEDEPTH
 70
  3020
  9
$CMLSTYLE
  2
STANDARD
  9
$CMLJUST
 70
     0
  9
$CMLSCALE
 40
20.0
  9
$PROXYGRAPHICS
 70
     1
  9
$MEASUREMENT
 70
     1
  9
$CELWEIGHT
370
    -1
  9
$ENDCAPS
280
     0
  9
$JOINSTYLE
280
     0
  9
$LWDISPLAY
290
     0
  9
$INSUNITS
 70
     0
  9
$HYPERLINKBASE
  1

  9
$STYLESHEET
  1
KURODA-MONOCHROME.CTB
  9
$XEDIT
290
     1
  9
$CEPSNTYPE
380
     0
  9
$PSTYLEMODE
290
     1
  9
$FINGERPRINTGUID
  2
{881B1582-4BC7-11D3-AB9D-00805F8B7187}
  9
$VERSIONGUID
  2
{45962389-FECD-4FB2-8EE4-C8BE3C15F1C0}
  9
$EXTNAMES
290
     1
  9
$PSVPSCALE
 40
0.0
  9
$OLESTARTUP
290
     0
  0
ENDSEC
  0
SECTION
  2
CLASSES
  0
CLASS
  1
ACDBDICTIONARYWDFLT
  2
AcDbDictionaryWithDefault
  3
ObjectDBX Classes
 90
        0
280
     0
281
     0
  0
CLASS
  1
ACDBPLACEHOLDER
  2
AcDbPlaceHolder
  3
ObjectDBX Classes
 90
        0
280
     0
281
     0
  0
CLASS
  1
LAYOUT
  2
AcDbLayout
  3
ObjectDBX Classes
 90
        0
280
     0
281
     0
  0
CLASS
  1
TABLESTYLE
  2
AcDbTableStyle
  3
ObjectDBX Classes
 90
     2047
280
     0
281
     0
  0
CLASS
  1
ACME_DOCUMENT
  2
AcMeDbDoc
  3
AcMeServices
 90
        0
280
     0
281
     0
  0
CLASS
  1
AMGSETTINGSOBJ
  2
AmgSettingsObj
  3
"AcadM|Product Description: AutoCAD Mechanical 2000|Company: Autodesk"
 90
        0
280
     0
281
     0
  0
CLASS
  1
AMGOBJPROPCFG
  2
AmgObjPropCfg
  3
"AmgLay|Product Description: AutoCAD Mechanical 2000|Company: Autodesk"
 90
        1
280
     0
281
     0
  0
CLASS
  1
ACMESCOPE
  2
AcMeScope
  3
AcMeServices
 90
        0
280
     0
281
     0
  0
CLASS
  1
ACGREFMASTER
  2
AcGrefMaster
  3
AcAttribServices
 90
        0
280
     0
281
     0
  0
CLASS
  1
ACMECOMMANDHISTORY
  2
AcMeCommandHistory
  3
AcMeServices
 90
        0
280
     0
281
     0
  0
CLASS
  1
ACIMSYSVARMAN
  2
AcImSysVarManager
  3
AcMeServices
 90
        0
280
     0
281
     0
  0
CLASS
  1
ACIMINTSYSVAR
  2
AcImIntSysVar
  3
AcMeServices
 90
        0
280
     0
281
     0
  0
CLASS
  1
ACMEDRAWINGMAN
  2
AcMeDrawingMan
  3
AcMeServices
 90
        0
280
     0
281
     0
  0
CLASS
  1
ACMEVIEW
  2
AcMeView
  3
AcMeServices
 90
        0
280
     0
281
     0
  0
CLASS
  1
ACDBENTITYCACHE
  2
AcMeEntityCache
  3
AcMeServices
 90
        0
280
     0
281
     0
  0
CLASS
  1
GSMANAGER
  2
AcMeGSManager
  3
AcMeServices
 90
        0
280
     0
281
     0
  0
CLASS
  1
AMDTINTERNALREACTOR
  2
AmdtInternalReactor
  3
AcMeServices
 90
        0
280
     0
281
     0
  0
CLASS
  1
ACMESTATEMGR
  2
AcMeStateMgr
  3
AcMeServices
 90
        0
280
     0
281
     0
  0
CLASS
  1
AM_DRAWING_MGR
  2
AcDmDwgMgr
  3
AcMechDwgViewMgmt
 90
        0
280
     0
281
     0
  0
CLASS
  1
AM_DWG_DOCUMENT
  2
AcDmDwgDocument
  3
AcMechDwgViewMgmt
 90
        0
280
     0
281
     0
  0
CLASS
  1
AM_DWG_SHEET
  2
AcDmSheet
  3
AcMechDwgViewMgmt
 90
        0
280
     0
281
     0
  0
CLASS
  1
AM_VIEWDIMPARMAP
  2
AcDmViewDimParMap
  3
AcMechDwgViewMgmt
 90
        0
280
     0
281
     0
  0
CLASS
  1
ACIMREALSYSVAR
  2
AcImRealSysVar
  3
AcMeServices
 90
        0
280
     0
281
     0
  0
CLASS
  1
AM_DWGMGR_NAME
  2
AcDmDwgMgrName
  3
AcMechDwgViewMgmt
 90
        0
280
     0
281
     0
  0
CLASS
  1
ACME_DATABASE
  2
AcMeDbDatabase
  3
AcMeServices
 90
        0
280
     0
281
     0
  0
CLASS
  1
ACRFINSADJUSTERMGR
  2
AcRfInsAdjusterMgr
  3
AcMeServices
 90
        0
280
     0
281
     0
  0
CLASS
  1
ACGREFACADMASTER
  2
AcGrefacadMaster
  3
AcGrefServices
 90
        0
280
     0
281
     0
  0
CLASS
  1
AMDTMENUSTATEMGR
  2
AmdtMenuStateMgr
  3
McadcomServices
 90
        0
280
     0
281
     0
  0
CLASS
  1
AMDTMCOMMENUSTATE
  2
AmdtMcomMenuState
  3
McadcomServices
 90
        0
280
     0
281
     0
  0
CLASS
  1
AMIMASTER
  2
AmiMaster
  3
AmiServices
 90
        0
280
     0
281
     0
  0
CLASS
  1
MAPIAMMOUDLE
  2
MApiAmModule
  3
MApiAmServices
 90
        0
280
     0
281
     0
  0
CLASS
  1
ACMSTANDARDANSI
  2
AcmStandardANSI
  3
"Amdt_StdImp|Product Description: AutoCAD Mechanical 2004 DX|Company: Autodesk"
 90
        0
280
     0
281
     0
  0
CLASS
  1
ACMSURFSTANDARDANSI
  2
AcmSurfTextStdANSI
  3
"Amdt_StdImp|Product Description: AutoCAD Mechanical 2004 DX|Company: Autodesk"
 90
        0
280
     0
281
     0
  0
CLASS
  1
ACMFCFSTANDARDANSI
  2
AcmFCFStdANSI
  3
"Amdt_StdImp|Product Description: AutoCAD Mechanical 2004 DX|Company: Autodesk"
 90
        0
280
     0
281
     0
  0
CLASS
  1
ACMWELDSTANDARDANSI
  2
AcmWeldingStdANSI
  3
"Amdt_StdImp|Product Description: AutoCAD Mechanical 2004 DX|Company: Autodesk"
 90
        0
280
     0
281
     0
  0
CLASS
  1
ACMIDSTANDARDANSI
  2
AcmIdStdANSI
  3
"Amdt_StdImp|Product Description: AutoCAD Mechanical 2004 DX|Company: Autodesk"
 90
        0
280
     0
281
     0
  0
CLASS
  1
ACMDATUMSTANDARDANSI
  2
AcmDatumStdANSI
  3
"Amdt_StdImp|Product Description: AutoCAD Mechanical 2004 DX|Company: Autodesk"
 90
        0
280
     0
281
     0
  0
CLASS
  1
ACMBOMSTANDARDANSI
  2
AcmBOMStdANSI
  3
"Amdt_StdImp|Product Description: AutoCAD Mechanical 2004 DX|Company: Autodesk"
 90
        0
280
     0
281
     0
  0
CLASS
  1
ACMDETAILSTANDARDANSI
  2
AmdtDetailSymStdANSI
  3
"Amdt_StdImp|Product Description: AutoCAD Mechanical 2004 DX|Company: Autodesk"
 90
        0
280
     0
281
     0
  0
CLASS
  1
ACMSECTIONSTANDARDANSI
  2
AmdtSectionSymStdANSI
  3
"Amdt_StdImp|Product Description: AutoCAD Mechanical 2004 DX|Company: Autodesk"
 90
        0
280
     0
281
     0
  0
CLASS
  1
ACMCENTERLINESTANDARDANSI
  2
AmdtCenterLineStdANSI
  3
"Amdt_StdImp|Product Description: AutoCAD Mechanical 2004 DX|Company: Autodesk"
 90
        0
280
     0
281
     0
  0
CLASS
  1
ACAMGLAYSTD
  2
AcAmgLayStd
  3
"AcAmgLayStd|Product Description: AutoCAD Mechanical 2000|Company: Autodesk"
 90
        0
280
     0
281
     0
  0
CLASS
  1
ACAMGDIMSTD
  2
AcAmgDimStd
  3
"AcAmgDimStd|Product Description: AutoCAD Mechanical 2000|Company: Autodesk"
 90
        0
280
     0
281
     0
  0
CLASS
  1
ACAMGTITLESTD
  2
AcAmgTitleStd
  3
"TITLEAPP"
 90
        0
280
     0
281
     0
  0
CLASS
  1
ACMNOTESTANDARDANSI
  2
AmdtNoteStdANSI
  3
"Amdt_StdImp|Product Description: AutoCAD Mechanical 2004 DX|Company: Autodesk"
 90
        0
280
     0
281
     0
  0
CLASS
  1
ACMTHREADLINESTANDARDANSI
  2
AmdtThreadLineStdANSI
  3
"Amdt_StdImp|Product Description: AutoCAD Mechanical 2004 DX|Company: Autodesk"
 90
        0
280
     0
281
     0
  0
CLASS
  1
ACMSTANDARDISO
  2
AcmStandardISO
  3
"Amdt_StdImp|Product Description: AutoCAD Mechanical 2004 DX|Company: Autodesk"
 90
        0
280
     0
281
     0
  0
CLASS
  1
AMDTEDGESTANDARDISO
  2
AmdtEdgeStdISO
  3
"Amdt_StdImp|Product Description: AutoCAD Mechanical 2004 DX|Company: Autodesk"
 90
        0
280
     0
281
     0
  0
CLASS
  1
ACMSURFSTANDARDISO
  2
AcmSurfTextStdISO
  3
"Amdt_StdImp|Product Description: AutoCAD Mechanical 2004 DX|Company: Autodesk"
 90
        0
280
     0
281
     0
  0
CLASS
  1
ACMFCFSTANDARDISO
  2
AcmFCFStdISO
  3
"Amdt_StdImp|Product Description: AutoCAD Mechanical 2004 DX|Company: Autodesk"
 90
        0
280
     0
281
     0
  0
CLASS
  1
ACMWELDSTANDARDISO
  2
AcmWeldingStdISO
  3
"Amdt_StdImp|Product Description: AutoCAD Mechanical 2004 DX|Company: Autodesk"
 90
        0
280
     0
281
     0
  0
CLASS
  1
ACMIDSTANDARDISO
  2
AcmIdStdISO
  3
"Amdt_StdImp|Product Description: AutoCAD Mechanical 2004 DX|Company: Autodesk"
 90
        0
280
     0
281
     0
  0
CLASS
  1
ACMDATUMSTANDARDISO
  2
AcmDatumStdISO
  3
"Amdt_StdImp|Product Description: AutoCAD Mechanical 2004 DX|Company: Autodesk"
 90
        0
280
     0
281
     0
  0
CLASS
  1
ACMBOMSTANDARDISO
  2
AcmBOMStdISO
  3
"Amdt_StdImp|Product Description: AutoCAD Mechanical 2004 DX|Company: Autodesk"
 90
        0
280
     0
281
     0
  0
CLASS
  1
ACMDETAILSTANDARDISO
  2
AmdtDetailSymStdISO
  3
"Amdt_StdImp|Product Description: AutoCAD Mechanical 2004 DX|Company: Autodesk"
 90
        0
280
     0
281
     0
  0
CLASS
  1
ACMSECTIONSTANDARDISO
  2
AmdtSectionSymStdISO
  3
"Amdt_StdImp|Product Description: AutoCAD Mechanical 2004 DX|Company: Autodesk"
 90
        0
280
     0
281
     0
  0
CLASS
  1
ACMCENTERLINESTANDARDISO
  2
AmdtCenterLineStdISO
  3
"Amdt_StdImp|Product Description: AutoCAD Mechanical 2004 DX|Company: Autodesk"
 90
        0
280
     0
281
     0
  0
CLASS
  1
ACMNOTESTANDARDISO
  2
AmdtNoteStdISO
  3
"Amdt_StdImp|Product Description: AutoCAD Mechanical 2004 DX|Company: Autodesk"
 90
        0
280
     0
281
     0
  0
CLASS
  1
ACMTHREADLINESTANDARDISO
  2
AmdtThreadLineStdISO
  3
"Amdt_StdImp|Product Description: AutoCAD Mechanical 2004 DX|Company: Autodesk"
 90
        0
280
     0
281
     0
  0
CLASS
  1
ACMSTANDARDJIS
  2
AcmStandardJIS
  3
"Amdt_StdImp|Product Description: AutoCAD Mechanical 2004 DX|Company: Autodesk"
 90
        0
280
     0
281
     0
  0
CLASS
  1
ACMSURFSTANDARDJIS
  2
AcmSurfTextStdJIS
  3
"Amdt_StdImp|Product Description: AutoCAD Mechanical 2004 DX|Company: Autodesk"
 90
        0
280
     0
281
     0
  0
CLASS
  1
ACMFCFSTANDARDJIS
  2
AcmFCFStdJIS
  3
"Amdt_StdImp|Product Description: AutoCAD Mechanical 2004 DX|Company: Autodesk"
 90
        0
280
     0
281
     0
  0
CLASS
  1
ACMWELDSTANDARDJIS
  2
AcmWeldingStdJIS
  3
"Amdt_StdImp|Product Description: AutoCAD Mechanical 2004 DX|Company: Autodesk"
 90
        0
280
     0
281
     0
  0
CLASS
  1
ACMIDSTANDARDJIS
  2
AcmIdStdJIS
  3
"Amdt_StdImp|Product Description: AutoCAD Mechanical 2004 DX|Company: Autodesk"
 90
        0
280
     0
281
     0
  0
CLASS
  1
ACMDATUMSTANDARDJIS
  2
AcmDatumStdJIS
  3
"Amdt_StdImp|Product Description: AutoCAD Mechanical 2004 DX|Company: Autodesk"
 90
        0
280
     0
281
     0
  0
CLASS
  1
ACMBOMSTANDARDJIS
  2
AcmBOMStdJIS
  3
"Amdt_StdImp|Product Description: AutoCAD Mechanical 2004 DX|Company: Autodesk"
 90
        0
280
     0
281
     0
  0
CLASS
  1
ACMDETAILSTANDARDJIS
  2
AmdtDetailSymStdJIS
  3
"Amdt_StdImp|Product Description: AutoCAD Mechanical 2004 DX|Company: Autodesk"
 90
        0
280
     0
281
     0
  0
CLASS
  1
ACMSECTIONSTANDARDJIS
  2
AmdtSectionSymStdJIS
  3
"Amdt_StdImp|Product Description: AutoCAD Mechanical 2004 DX|Company: Autodesk"
 90
        0
280
     0
281
     0
  0
CLASS
  1
ACMCENTERLINESTANDARDJIS
  2
AmdtCenterLineStdJIS
  3
"Amdt_StdImp|Product Description: AutoCAD Mechanical 2004 DX|Company: Autodesk"
 90
        0
280
     0
281
     0
  0
CLASS
  1
ACMTHREADLINESTANDARDJIS
  2
AmdtThreadLineStdJIS
  3
"Amdt_StdImp|Product Description: AutoCAD Mechanical 2004 DX|Company: Autodesk"
 90
        0
280
     0
281
     0
  0
CLASS
  1
ACMNOTESTANDARDJIS
  2
AmdtNoteStdJIS
  3
"Amdt_StdImp|Product Description: AutoCAD Mechanical 2004 DX|Company: Autodesk"
 90
        0
280
     0
281
     0
  0
CLASS
  1
ACIMSTRSYSVAR
  2
AcImStrSysVar
  3
AcMeServices
 90
        0
280
     0
281
     0
  0
CLASS
  1
AMDTADMENUSTATE
  2
AmdtAdMenuState
  3
DesignerServices
 90
        0
280
     0
281
     0
  0
CLASS
  1
ADAPPL
  2
AcAdAppl
  3
DesignerServices
 90
        0
280
     0
281
     0
  0
CLASS
  1
DEPMGR
  2
AcAdDepMgr
  3
DesignerServices
 90
        0
280
     0
281
     0
  0
CLASS
  1
PARAMMGR
  2
AcAdParamMgr
  3
DesignerServices
 90
        0
280
     0
281
     0
  0
CLASS
  1
PARAMSCOPE
  2
AcAdParamScope
  3
DesignerServices
 90
        0
280
     0
281
     0
  0
CLASS
  1
NAMEDAPPL
  2
AcAdNamedAppl
  3
DesignerServices
 90
        0
280
     0
281
     0
  0
CLASS
  1
AMDTDMMENUSTATE
  2
AmdtDmMenuState
  3
AcMechDwgViewMgmt
 90
        0
280
     0
281
     0
  0
CLASS
  1
AMDTAMMENUSTATE
  2
AmdtAmMenuState
  3
DesignerAssemblies
 90
        0
280
     0
281
     0
  0
CLASS
  1
ACAMPROJECT
  2
AcAmProject
  3
DesignerAssemblies
 90
        0
280
     0
281
     0
  0
CLASS
  1
ACAMGRCOMPDEF
  2
AcAmGrCompDef
  3
DesignerAssemblies
 90
        0
280
     0
281
     0
  0
CLASS
  1
ACCMCONTEXT
  2
AcCmContext
  3
DesignerAssemblies
 90
        0
280
     0
281
     0
  0
CLASS
  1
ACAMCOMPDEF
  2
AcAmCompDef
  3
DesignerAssemblies
 90
        0
280
     0
281
     0
  0
CLASS
  1
ACAMCOMPDEFMGR
  2
AcAmCompDefMgr
  3
DesignerAssemblies
 90
        0
280
     0
281
     0
  0
CLASS
  1
AMCONTEXTMGR
  2
AcAmContextMgr
  3
DesignerAssemblies
 90
        0
280
     0
281
     0
  0
CLASS
  1
ACAMCONTEXTMODELER
  2
AcAmContextModeler
  3
DesignerAssemblies
 90
        0
280
     0
281
     0
  0
CLASS
  1
ACMDATADICTIONARY
  2
AcmDataDictionary
  3
"AcmSymBB|Product Description: AutoCAD Mechanical 2004 DX|Company: Autodesk"
 90
        0
280
     0
281
     0
  0
CLASS
  1
CATALOGSTATE
  2
AcAmCatalogState
  3
DesignerAssemblies
 90
        0
280
     0
281
     0
  0
CLASS
  1
ACAMGRCOMPDEFSET
  2
AcAmGrCompDefSet
  3
DesignerAssemblies
 90
        0
280
     0
281
     0
  0
CLASS
  1
AMDTBROWSERDBTAB
  2
AmdtBrowserDbTab
  3
McadcomServices
 90
        0
280
     0
281
     0
  0
CLASS
  1
CBROWSERAPPOBJECT
  2
CBrowserAppObject
  3
McadcomServices
 90
        0
280
     0
281
     0
  0
CLASS
  1
DM_PLACEHOLDER
  2
AcDmSelsetPlaceholder
  3
AcMechDwgViewMgmt
 90
        0
280
     0
281
     0
  0
CLASS
  1
ACAMGFILTERDAT
  2
AcAmgFilterDat
  3
"AcadM|Product Description: AutoCAD Mechanical 2000|Company: Autodesk"
 90
    32768
280
     0
281
     0
  0
CLASS
  1
DICTIONARYVAR
  2
AcDbDictionaryVar
  3
ObjectDBX Classes
 90
        0
280
     0
281
     0
  0
CLASS
  1
ACMSURFSYM
  2
AcmSurfaceTexture
  3
"AcmSymBB|Product Description: AutoCAD Mechanical 2004 DX|Company: Autodesk"
 90
    33791
280
     0
281
     1
  0
CLASS
  1
ACDBLINERES
  2
AcDbLineRes
  3
AcGrefServices
 90
    32768
280
     0
281
     0
  0
CLASS
  1
ACDBDIMENSIONRES
  2
AcDbDimensionRes
  3
"AcDbDimensionRes|Product Description: AutoCAD Mechanical 2000|Company: Autodesk"
 90
    32768
280
     0
281
     0
  0
CLASS
  1
SORTENTSTABLE
  2
AcDbSortentsTable
  3
ObjectDBX Classes
 90
    32768
280
     0
281
     0
  0
CLASS
  1
ACMDATAENTRYBLOCK
  2
AcmDataEntryBlock
  3
"AcmSymBB|Product Description: AutoCAD Mechanical 2004 DX|Company: Autodesk"
 90
    32768
280
     0
281
     0
  0
ENDSEC
  0
SECTION
  2
TABLES
  0
TABLE
  2
VPORT
  5
8
330
0
100
AcDbSymbolTable
 70
     3
  0
VPORT
  5
CDD
330
8
100
AcDbSymbolTableRecord
100
AcDbViewportTableRecord
  2
*Active
 70
     0
 10
0.0
 20
0.0
 11
1.0
 21
1.0
 12
205.5000013760291
 22
0.0000006449408261
 13
0.0
 23
0.0
 14
10.0
 24
10.0
 15
10.0
 25
10.0
 16
0.0
 26
0.0
 36
1.0
 17
0.0
 27
0.0
 37
0.0
 40
448.9287498604531
 41
1.324468085106383
 42
50.0
 43
0.0
 44
0.0
 50
0.0
 51
0.0
 71
     0
 72
   100
 73
     1
 74
     1
 75
     0
 76
     0
 77
     0
 78
     0
281
     0
 65
     1
110
0.0
120
0.0
130
0.0
111
1.0
121
0.0
131
0.0
112
0.0
122
1.0
132
0.0
 79
     0
146
0.0
  0
ENDTAB
  0
TABLE
  2
LTYPE
  5
5
330
0
100
AcDbSymbolTable
 70
    22
  0
LTYPE
  5
12
330
5
100
AcDbSymbolTableRecord
100
AcDbLinetypeTableRecord
  2
BYBLOCK
 70
     0
  3

 72
    65
 73
     0
 40
0.0
  0
LTYPE
  5
13
330
5
100
AcDbSymbolTableRecord
100
AcDbLinetypeTableRecord
  2
BYLAYER
 70
     0
  3

 72
    65
 73
     0
 40
0.0
  0
LTYPE
  5
14
330
5
100
AcDbSymbolTableRecord
100
AcDbLinetypeTableRecord
  2
CONTINUOUS
 70
     0
  3
Solid line
 72
    65
 73
     0
 40
0.0
  0
LTYPE
  5
22
330
5
100
AcDbSymbolTableRecord
100
AcDbLinetypeTableRecord
  2
CENTER
 70
     0
  3
__ . __
 72
    65
 73
     4
 40
7.0
 49
4.0
 74
     0
 49
-1.0
 74
     0
 49
1.0
 74
     0
 49
-1.0
 74
     0
  0
LTYPE
  5
23
330
5
100
AcDbSymbolTableRecord
100
AcDbLinetypeTableRecord
  2
CENTER2
 70
     0
  3
Center (.5x) ___ _ ___ _ ___ _ ___ _ ___ _ ___
 72
    65
 73
     4
 40
28.575
 49
19.05
 74
     0
 49
-3.174999999999999
 74
     0
 49
3.174999999999999
 74
     0
 49
-3.174999999999999
 74
     0
  0
LTYPE
  5
24
330
5
100
AcDbSymbolTableRecord
100
AcDbLinetypeTableRecord
  2
PHANTOM
 70
     0
  3
Phantom ______  __  __  ______  __  __  ______
 72
    65
 73
     6
 40
63.5
 49
31.75
 74
     0
 49
-6.349999999999998
 74
     0
 49
6.349999999999998
 74
     0
 49
-6.349999999999998
 74
     0
 49
6.349999999999998
 74
     0
 49
-6.349999999999998
 74
     0
  0
LTYPE
  5
25
330
5
100
AcDbSymbolTableRecord
100
AcDbLinetypeTableRecord
  2
PHANTOM2
 70
     0
  3
Phantom (.5x) ___ _ _ ___ _ _ ___ _ _ ___ _ _
 72
    65
 73
     6
 40
31.75
 49
15.875
 74
     0
 49
-3.174999999999999
 74
     0
 49
3.174999999999999
 74
     0
 49
-3.174999999999999
 74
     0
 49
3.174999999999999
 74
     0
 49
-3.174999999999999
 74
     0
  0
LTYPE
  5
26
330
5
100
AcDbSymbolTableRecord
100
AcDbLinetypeTableRecord
  2
DASHED
 70
     0
  3
Dashed __ __ __ __ __ __ __ __ __ __ __ __ __ _
 72
    65
 73
     2
 40
19.05
 49
12.7
 74
     0
 49
-6.349999999999998
 74
     0
  0
LTYPE
  5
27
330
5
100
AcDbSymbolTableRecord
100
AcDbLinetypeTableRecord
  2
DASHED2
 70
     0
  3
Dashed (.5x) _ _ _ _ _ _ _ _ _ _ _ _ _ _ _ _ _
 72
    65
 73
     2
 40
9.524999999999996
 49
6.349999999999998
 74
     0
 49
-3.174999999999998
 74
     0
  0
LTYPE
  5
23B
330
5
100
AcDbSymbolTableRecord
100
AcDbLinetypeTableRecord
  2
AM_ISO02W050
 70
     0
  3
__ __ __ __ __ __ __ __ __ __ __ __ __ __ __
 72
    65
 73
     2
 40
7.5
 49
6.0
 74
     0
 49
-1.5
 74
     0
  0
LTYPE
  5
23C
330
5
100
AcDbSymbolTableRecord
100
AcDbLinetypeTableRecord
  2
AM_ISO08W050
 70
     0
  3
____ . ____ . ____ . ____ . ____ . ____ . ____
 72
    65
 73
     4
 40
18.0
 49
12.0
 74
     0
 49
-1.5
 74
     0
 49
3.0
 74
     0
 49
-1.5
 74
     0
  0
LTYPE
  5
23D
330
5
100
AcDbSymbolTableRecord
100
AcDbLinetypeTableRecord
  2
AM_ISO09W050
 70
     0
  3
_____ . . _____ . . _____ . . ____ .. ____
 72
    65
 73
     6
 40
22.5
 49
12.0
 74
     0
 49
-1.5
 74
     0
 49
3.0
 74
     0
 49
-1.5
 74
     0
 49
3.0
 74
     0
 49
-1.5
 74
     0
  0
LTYPE
  5
23E
330
5
100
AcDbSymbolTableRecord
100
AcDbLinetypeTableRecord
  2
Amconstr
 70
     0
  3
_______________________
 72
    65
 73
     2
 40
9999.0
 49
9999.0
 74
     0
 49
0.0
 74
     0
  0
LTYPE
  5
23F
330
5
100
AcDbSymbolTableRecord
100
AcDbLinetypeTableRecord
  2
AM_ISO02W050x2
 70
     0
  3
 _ _ _ _ _ _ _ _ _ _ _ _
 72
    65
 73
     2
 40
3.75
 49
3.0
 74
     0
 49
-0.75
 74
     0
  0
LTYPE
  5
240
330
5
100
AcDbSymbolTableRecord
100
AcDbLinetypeTableRecord
  2
AM_ISO08W050x2
 70
     0
  3
__ . __ . __ . __ . __ . __
 72
    65
 73
     4
 40
9.0
 49
6.0
 74
     0
 49
-0.75
 74
     0
 49
1.5
 74
     0
 49
-0.75
 74
     0
  0
LTYPE
  5
241
330
5
100
AcDbSymbolTableRecord
100
AcDbLinetypeTableRecord
  2
Amzigzag
 70
     0
  3
/\/-/\/-/\/-/\/-/\/-/\/
 72
    65
 73
     2
 40
11.0001
 49
0.0001
 74
     4
 75
   135
340
21
 46
0.04
 50
0.0
 44
0.0
 45
0.0
 49
-11.0
 74
     0
  0
LTYPE
  5
26F
330
5
100
AcDbSymbolTableRecord
100
AcDbLinetypeTableRecord
  2
HIDDEN
 70
     0
  3
Hidden __ __ __ __ __ __ __ __ __ __ __ __ __ _
 72
    65
 73
     2
 40
9.524999999999996
 49
6.349999999999998
 74
     0
 49
-3.174999999999998
 74
     0
  0
LTYPE
  5
283
330
5
100
AcDbSymbolTableRecord
100
AcDbLinetypeTableRecord
  2
ACANSTGB
 70
     0
  3
__ . . __ . .
 72
    65
 73
     6
 40
0.35433070866
 49
0.15748031496
 74
     0
 49
-0.03937007874
 74
     0
 49
0.03937007874
 74
     0
 49
-0.03937007874
 74
     0
 49
0.03937007874
 74
     0
 49
-0.03937007874
 74
     0
  0
LTYPE
  5
284
330
5
100
AcDbSymbolTableRecord
100
AcDbLinetypeTableRecord
  2
ACANSTGL
 70
     0
  3
_ _ _ _ _
 72
    65
 73
     2
 40
0.11811023622
 49
0.07874015748
 74
     0
 49
-0.03937007874
 74
     0
  0
LTYPE
  5
2A0
330
5
100
AcDbSymbolTableRecord
100
AcDbLinetypeTableRecord
  2
ACISOWELD
 70
     0
  3
_ _ _ _ _
 72
    65
 73
     2
 40
2.0
 49
2.0
 74
     0
 49
-1.0
 74
     0
  0
LTYPE
  5
2A3
330
5
100
AcDbSymbolTableRecord
100
AcDbLinetypeTableRecord
  2
ACISOTGB
 70
     0
  3
__ . . __ . .
 72
    65
 73
     6
 40
9.0
 49
4.0
 74
     0
 49
-1.0
 74
     0
 49
1.0
 74
     0
 49
-1.0
 74
     0
 49
1.0
 74
     0
 49
-1.0
 74
     0
  0
LTYPE
  5
2A4
330
5
100
AcDbSymbolTableRecord
100
AcDbLinetypeTableRecord
  2
ACISOTGL
 70
     0
  3
_ _ _ _ _
 72
    65
 73
     2
 40
3.0
 49
2.0
 74
     0
 49
-1.0
 74
     0
  0
LTYPE
  5
2BE
330
5
100
AcDbSymbolTableRecord
100
AcDbLinetypeTableRecord
  2
ACJISTGB
 70
     0
  3
__ . . __ . .
 72
    65
 73
     6
 40
9.0
 49
4.0
 74
     0
 49
-1.0
 74
     0
 49
1.0
 74
     0
 49
-1.0
 74
     0
 49
1.0
 74
     0
 49
-1.0
 74
     0
  0
LTYPE
  5
2BF
330
5
100
AcDbSymbolTableRecord
100
AcDbLinetypeTableRecord
  2
ACJISTGL
 70
     0
  3
_ _ _ _ _
 72
    65
 73
     2
 40
3.0
 49
2.0
 74
     0
 49
-1.0
 74
     0
  0
ENDTAB
  0
TABLE
  2
LAYER
  5
2
330
0
100
AcDbSymbolTable
 70
     8
  0
LAYER
  5
E
330
2
100
AcDbSymbolTableRecord
100
AcDbLayerTableRecord
  2
0
 70
     0
 62
     7
  6
CONTINUOUS
370
    -3
390
5D
  0
LAYER
  5
74
330
2
100
AcDbSymbolTableRecord
100
AcDbLayerTableRecord
  2
Defpoints
 70
     0
 62
     7
  6
CONTINUOUS
290
     0
370
    -3
390
5D
  0
LAYER
  5
75
330
2
100
AcDbSymbolTableRecord
100
AcDbLayerTableRecord
  2
PV0001_1
 70
     0
 62
     7
  6
CONTINUOUS
370
    -3
390
5D
  0
LAYER
  5
2D0
330
2
100
AcDbSymbolTableRecord
100
AcDbLayerTableRecord
  2
outline
 70
     0
 62
     4
  6
CONTINUOUS
370
    50
390
5D
  0
LAYER
  5
369
330
2
100
AcDbSymbolTableRecord
100
AcDbLayerTableRecord
  2
center
 70
     0
 62
     2
  6
CENTER2
370
    25
390
5D
  0
LAYER
  5
36A
330
2
100
AcDbSymbolTableRecord
100
AcDbLayerTableRecord
  2
dimension
 70
     0
 62
     7
  6
CONTINUOUS
370
    25
390
5D
  0
LAYER
  5
36B
330
2
100
AcDbSymbolTableRecord
100
AcDbLayerTableRecord
  2
imaginary
 70
     0
 62
     2
  6
PHANTOM2
370
    25
390
5D
  0
LAYER
  5
4C1
330
2
100
AcDbSymbolTableRecord
100
AcDbLayerTableRecord
  2
AM_CL
 70
     0
 62
     1
  6
Amconstr
370
    25
390
5D
1001
AcAecLayerStandard
1000

1000

  0
ENDTAB
  0
TABLE
  2
STYLE
  5
3
330
0
100
AcDbSymbolTable
 70
    10
  0
STYLE
  5
F
330
3
100
AcDbSymbolTableRecord
100
AcDbTextStyleTableRecord
  2
STANDARD
 70
     0
 40
0.0
 41
1.0
 50
0.0
 71
     0
 42
2.5
  3
monotxt.shx
  4
extfont.shx
  0
STYLE
  5
21
330
3
100
AcDbSymbolTableRecord
100
AcDbTextStyleTableRecord
  2

 70
     1
 40
0.0
 41
1.0
 50
0.0
 71
     0
 42
2.5
  3
ltypeshp.shx
  4

  0
STYLE
  5
30
330
3
100
AcDbSymbolTableRecord
100
AcDbTextStyleTableRecord
  2
DIM
 70
     0
 40
0.0
 41
1.0
 50
0.0
 71
     0
 42
2.5
  3
monotxt.shx
  4
extfont.shx
  0
STYLE
  5
31
330
3
100
AcDbSymbolTableRecord
100
AcDbTextStyleTableRecord
  2
CONVERT
 70
     0
 40
0.0
 41
1.0
 50
0.0
 71
     0
 42
2.5
  3
monotxt.shx
  4
extfont.shx
  0
STYLE
  5
27C
330
3
100
AcDbSymbolTableRecord
100
AcDbTextStyleTableRecord
  2
ACANSTS
 70
     0
 40
1.0
 41
1.0
 50
0.0
 71
     0
 42
5.0
  3
romans.shx
  4
extfont.shx
  0
STYLE
  5
27F
330
3
100
AcDbSymbolTableRecord
100
AcDbTextStyleTableRecord
  2
ACANSGDT
 70
     0
 40
0.0
 41
1.0
 50
0.0
 71
     0
 42
5.0
  3
amgdtans.shx
  4

  0
STYLE
  5
29A
330
3
100
AcDbSymbolTableRecord
100
AcDbTextStyleTableRecord
  2
ACISOTS
 70
     0
 40
1.0
 41
1.0
 50
0.0
 71
     0
 42
2.5
  3
isocp.shx
  4
extfont.shx
  0
STYLE
  5
29E
330
3
100
AcDbSymbolTableRecord
100
AcDbTextStyleTableRecord
  2
ACISOGDT
 70
     0
 40
0.0
 41
1.0
 50
0.0
 71
     0
 42
2.5
  3
amgdt.shx
  4

  0
STYLE
  5
2B7
330
3
100
AcDbSymbolTableRecord
100
AcDbTextStyleTableRecord
  2
ACJISTS
 70
     0
 40
1.0
 41
1.0
 50
0.0
 71
     0
 42
2.5
  3
isocp.shx
  4
bigfont.shx
  0
STYLE
  5
2BA
330
3
100
AcDbSymbolTableRecord
100
AcDbTextStyleTableRecord
  2
ACJISGDT
 70
     0
 40
0.0
 41
1.0
 50
0.0
 71
     0
 42
2.5
  3
amgdt.shx
  4

  0
ENDTAB
  0
TABLE
  2
VIEW
  5
6
330
0
100
AcDbSymbolTable
 70
     0
  0
ENDTAB
  0
TABLE
  2
UCS
  5
7
330
0
100
AcDbSymbolTable
 70
     0
  0
ENDTAB
  0
TABLE
  2
APPID
  5
9
330
0
100
AcDbSymbolTable
 70
    31
  0
APPID
  5
10
330
9
100
AcDbSymbolTableRecord
100
AcDbRegAppTableRecord
  2
ACAD
 70
     0
  0
APPID
  5
21F
330
9
100
AcDbSymbolTableRecord
100
AcDbRegAppTableRecord
  2
MCAD_NO_VIS
 70
     0
  0
APPID
  5
220
330
9
100
AcDbSymbolTableRecord
100
AcDbRegAppTableRecord
  2
ACAD_TEMP_GRAPHIC
 70
     0
  0
APPID
  5
221
330
9
100
AcDbSymbolTableRecord
100
AcDbRegAppTableRecord
  2
GENIUS_GENREC_14
 70
     0
  0
APPID
  5
222
330
9
100
AcDbSymbolTableRecord
100
AcDbRegAppTableRecord
  2
GENIUS_GENODEF_13
 70
     0
  0
APPID
  5
223
330
9
100
AcDbSymbolTableRecord
100
AcDbRegAppTableRecord
  2
GENIUS_GENOBJ-N-REC_13
 70
     0
  0
APPID
  5
224
330
9
100
AcDbSymbolTableRecord
100
AcDbRegAppTableRecord
  2
GENIUS_GENOBJ-N-CEN_13
 70
     0
  0
APPID
  5
225
330
9
100
AcDbSymbolTableRecord
100
AcDbRegAppTableRecord
  2
GENIUS_GENDTOL_13
 70
     0
  0
APPID
  5
226
330
9
100
AcDbSymbolTableRecord
100
AcDbRegAppTableRecord
  2
GENIUS_GENDIMSH_14
 70
     0
  0
APPID
  5
227
330
9
100
AcDbSymbolTableRecord
100
AcDbRegAppTableRecord
  2
ACATTRIBSERVICES
 70
     0
  0
APPID
  5
228
330
9
100
AcDbSymbolTableRecord
100
AcDbRegAppTableRecord
  2
GENIUS_GENFIL_13
 70
     0
  0
APPID
  5
229
330
9
100
AcDbSymbolTableRecord
100
AcDbRegAppTableRecord
  2
GENIUS_GENOBJ-N-CHA_13
 70
     0
  0
APPID
  5
22A
330
9
100
AcDbSymbolTableRecord
100
AcDbRegAppTableRecord
  2
GENIUS_GENOLIS_13
 70
     0
  0
APPID
  5
22B
330
9
100
AcDbSymbolTableRecord
100
AcDbRegAppTableRecord
  2
GENIUS_GENOENT_13
 70
     0
  0
APPID
  5
22C
330
9
100
AcDbSymbolTableRecord
100
AcDbRegAppTableRecord
  2
GENIUS_GENOREF_13
 70
     0
  0
APPID
  5
22D
330
9
100
AcDbSymbolTableRecord
100
AcDbRegAppTableRecord
  2
GENIUS_GENOBJ-N-CRS_13
 70
     0
  0
APPID
  5
22E
330
9
100
AcDbSymbolTableRecord
100
AcDbRegAppTableRecord
  2
GENIUS_GENOBJ-N-TIT_13
 70
     0
  0
APPID
  5
22F
330
9
100
AcDbSymbolTableRecord
100
AcDbRegAppTableRecord
  2
GENIUS_GENTITLE_13
 70
     0
  0
APPID
  5
230
330
9
100
AcDbSymbolTableRecord
100
AcDbRegAppTableRecord
  2
GENIUS_GENSCREG_15
 70
     0
  0
APPID
  5
231
330
9
100
AcDbSymbolTableRecord
100
AcDbRegAppTableRecord
  2
GENIUS_GENOBJ-N-SDF_13
 70
     0
  0
APPID
  5
232
330
9
100
AcDbSymbolTableRecord
100
AcDbRegAppTableRecord
  2
GENIUS_GENTRA_14
 70
     0
  0
APPID
  5
233
330
9
100
AcDbSymbolTableRecord
100
AcDbRegAppTableRecord
  2
GENIUS_GENOBJ-N-FIL_13
 70
     0
  0
APPID
  5
234
330
9
100
AcDbSymbolTableRecord
100
AcDbRegAppTableRecord
  2
AD_DRAW
 70
     0
  0
APPID
  5
235
330
9
100
AcDbSymbolTableRecord
100
AcDbRegAppTableRecord
  2
DESIGNERASSEMBLIES
 70
     0
  0
APPID
  5
236
330
9
100
AcDbSymbolTableRecord
100
AcDbRegAppTableRecord
  2
ACADM_DIM_EDIT
 70
     0
  0
APPID
  5
237
330
9
100
AcDbSymbolTableRecord
100
AcDbRegAppTableRecord
  2
AMDT_DM_ADJ
 70
     0
  0
APPID
  5
36D
330
9
100
AcDbSymbolTableRecord
100
AcDbRegAppTableRecord
  2
ACAD_DSTYLE_DIMARC_LENGTH_SYMBOL
 70
     0
  0
APPID
  5
36E
330
9
100
AcDbSymbolTableRecord
100
AcDbRegAppTableRecord
  2
ACAD_DSTYLE_DIMJOGGED_JOGANGLE_SYMBOL
 70
     0
  0
APPID
  5
36F
330
9
100
AcDbSymbolTableRecord
100
AcDbRegAppTableRecord
  2
ACAD_PSEXT
 70
     0
  0
APPID
  5
4C2
330
9
100
AcDbSymbolTableRecord
100
AcDbRegAppTableRecord
  2
AcAecLayerStandard
 70
     0
  0
APPID
  5
4D4
330
9
100
AcDbSymbolTableRecord
100
AcDbRegAppTableRecord
  2
ACAD_EXEMPT_FROM_CAD_STANDARDS
 70
     0
  0
ENDTAB
  0
TABLE
  2
DIMSTYLE
  5
A
330
0
100
AcDbSymbolTable
 70
    29
100
AcDbDimStyleTable
 71
     1
340
1D
  0
DIMSTYLE
105
1D
330
A
100
AcDbSymbolTableRecord
100
AcDbDimStyleTableRecord
  2
STANDARD
 70
     0
 41
3.0
 42
1.0
 43
7.0
 44
2.0
 73
     0
 74
     0
 77
     1
140
2.799999999999998
141
0.0
143
0.0394
147
0.7
171
     4
172
     1
173
     1
176
    44
177
    44
178
    44
271
     3
272
     3
273
     8
274
     4
289
     0
340
F
341
32
343
32
344
32
  0
DIMSTYLE
105
28C
330
A
100
AcDbSymbolTableRecord
100
AcDbDimStyleTableRecord
  2
AM_ANSI
 70
     0
  4
mm
 41
0.1
 42
0.05
 43
0.5
 44
0.1
 47
0.1
 48
0.1
 78
     7
 79
     2
140
0.12
141
0.0
146
0.71
147
0.06
176
   256
177
   256
178
     2
274
     4
340
F
371
    -1
372
    -1
  0
DIMSTYLE
105
28D
330
A
100
AcDbSymbolTableRecord
100
AcDbDimStyleTableRecord
  2
AM_ANSI$3
 70
     0
  4
mm
 41
0.1
 42
0.05
 43
0.5
 44
0.1
 47
0.1
 48
0.1
 78
     7
 79
     2
140
0.12
141
0.0
146
0.71
147
0.06
176
   256
177
   256
178
     2
274
     4
288
     1
289
     0
340
F
371
    -1
372
    -1
  0
DIMSTYLE
105
28E
330
A
100
AcDbSymbolTableRecord
100
AcDbDimStyleTableRecord
  2
AM_ANSI$4
 70
     0
  4
mm
 41
0.1
 42
0.05
 43
0.5
 44
0.1
 47
0.1
 48
0.1
 78
     7
 79
     2
140
0.12
141
0.0
146
0.71
147
0.06
176
   256
177
   256
178
     2
274
     4
288
     1
289
     0
340
F
371
    -1
372
    -1
  0
DIMSTYLE
105
28F
330
A
100
AcDbSymbolTableRecord
100
AcDbDimStyleTableRecord
  2
AM_ANSI$7
 70
     0
  4
mm
 41
0.1
 42
0.05
 43
0.5
 44
0.1
 47
0.1
 48
0.1
 78
     7
 79
     2
140
0.24
141
0.0
146
0.71
147
0.06
176
   256
177
   256
178
     2
274
     4
340
F
371
    -1
372
    -1
  0
DIMSTYLE
105
290
330
A
100
AcDbSymbolTableRecord
100
AcDbDimStyleTableRecord
  2
AM_ANSI$SF
 70
     0
  4
mm
 41
0.1
 42
0.05
 43
0.5
 44
0.1
 47
0.1
 48
0.1
 75
     1
 76
     1
 78
     7
 79
     2
140
0.12
141
0.0
146
0.71
147
0.06
176
   256
177
   256
178
     2
274
     4
340
F
371
    -1
372
    -1
  0
DIMSTYLE
105
291
330
A
100
AcDbSymbolTableRecord
100
AcDbDimStyleTableRecord
  2
AM_ANSI$SH
 70
     0
  4
mm
 41
0.1
 42
0.05
 43
0.5
 44
0.1
 47
0.1
 48
0.1
 75
     1
 76
     1
 78
     7
 79
     2
140
0.12
141
0.0
146
0.71
147
0.06
173
     1
176
   256
177
   256
178
     2
274
     4
340
F
343
292
371
    -1
372
    -1
  0
DIMSTYLE
105
2AC
330
A
100
AcDbSymbolTableRecord
100
AcDbDimStyleTableRecord
  2
AM_ISO
 70
     0
  4
"
 41
2.5
 42
1.0
 43
10.0
 44
1.0
 47
0.1
 48
0.1
 73
     0
 74
     0
 77
     1
 78
     8
 79
     2
140
3.5
141
0.0
143
0.0393701
146
0.71
147
1.5
172
     1
176
   256
177
   256
178
     2
271
     2
272
     3
274
     4
283
     0
284
     8
340
F
371
    -1
372
    -1
  0
DIMSTYLE
105
2AD
330
A
100
AcDbSymbolTableRecord
100
AcDbDimStyleTableRecord
  2
AM_ISO$3
 70
     0
  4
"
 41
2.5
 42
1.0
 43
10.0
 44
1.0
 47
0.1
 48
0.1
 73
     0
 77
     1
 78
     8
 79
     2
140
3.5
141
0.0
143
0.0393701
146
0.71
147
1.5
176
   256
177
   256
178
     2
271
     2
272
     3
274
     4
283
     0
284
     8
288
     1
289
     0
340
F
371
    -1
372
    -1
  0
DIMSTYLE
105
2AE
330
A
100
AcDbSymbolTableRecord
100
AcDbDimStyleTableRecord
  2
AM_ISO$4
 70
     0
  4
"
 41
2.5
 42
1.0
 43
10.0
 44
1.0
 47
0.1
 48
0.1
 73
     0
 77
     1
 78
     8
 79
     2
140
3.5
141
0.0
143
0.0393701
146
0.71
147
1.5
176
   256
177
   256
178
     2
271
     2
272
     3
274
     4
283
     0
284
     8
288
     1
289
     0
340
F
371
    -1
372
    -1
  0
DIMSTYLE
105
2AF
330
A
100
AcDbSymbolTableRecord
100
AcDbDimStyleTableRecord
  2
AM_ISO$6
 70
     0
  4
"
 41
2.5
 42
1.0
 43
10.0
 44
1.0
 47
0.1
 48
0.1
 73
     0
 74
     0
 78
     8
 79
     2
140
3.5
141
0.0
143
0.0393701
146
0.71
147
1.5
172
     1
176
   256
177
   256
178
     2
271
     2
272
     3
274
     4
283
     0
284
     8
340
F
371
    -1
372
    -1
  0
DIMSTYLE
105
2B0
330
A
100
AcDbSymbolTableRecord
100
AcDbDimStyleTableRecord
  2
AM_ISO$7
 70
     0
  4
"
 41
2.5
 42
1.0
 43
10.0
 44
1.0
 47
0.1
 48
0.1
 73
     0
 74
     0
 77
     1
 78
     8
 79
     2
140
5.0
141
0.0
143
0.0393701
146
0.71
147
1.5
172
     1
176
   256
177
   256
178
     2
271
     2
272
     3
274
     4
283
     0
284
     8
340
F
371
    -1
372
    -1
  0
DIMSTYLE
105
2B1
330
A
100
AcDbSymbolTableRecord
100
AcDbDimStyleTableRecord
  2
AM_ISO$SF
 70
     0
  4
"
 41
2.5
 42
1.0
 43
10.0
 44
1.0
 47
0.1
 48
0.1
 73
     0
 74
     0
 75
     1
 76
     1
 77
     1
 78
     8
 79
     2
140
3.5
141
0.0
143
0.0393701
146
0.71
147
1.5
172
     1
176
   256
177
   256
178
     2
271
     2
272
     3
274
     4
283
     0
284
     8
340
F
371
    -1
372
    -1
  0
DIMSTYLE
105
2B2
330
A
100
AcDbSymbolTableRecord
100
AcDbDimStyleTableRecord
  2
AM_ISO$SH
 70
     0
  4
"
 41
2.5
 42
1.0
 43
10.0
 44
1.0
 47
0.1
 48
0.1
 73
     0
 74
     0
 75
     1
 76
     1
 77
     1
 78
     8
 79
     2
140
3.5
141
0.0
143
0.0393701
144
2.0
146
0.71
147
1.5
172
     1
173
     1
176
   256
177
   256
178
     2
271
     2
272
     3
274
     4
283
     0
284
     8
340
F
343
292
371
    -1
372
    -1
  0
DIMSTYLE
105
2CC
330
A
100
AcDbSymbolTableRecord
100
AcDbDimStyleTableRecord
  2
kuroda_sunpo
 70
     0
  4
"
 41
2.5
 42
1.0
 43
8.0
 44
1.0
 47
0.1
 48
0.1
 73
     0
 74
     0
 77
     3
 78
     8
 79
     2
140
3.2
141
0.0
143
0.0393701
146
0.71
147
1.5
172
     1
176
     7
177
     7
178
     7
179
     2
271
     3
272
     3
275
     1
283
     0
340
F
341
2CD
342
2CD
371
    -1
372
    -1
  0
DIMSTYLE
105
2D4
330
A
100
AcDbSymbolTableRecord
100
AcDbDimStyleTableRecord
  2
kuroda_sunpo$3
 70
     0
  4
"
 41
2.5
 42
1.0
 43
8.0
 44
1.0
 47
0.1
 48
0.1
 73
     0
 77
     3
 78
     8
 79
     2
140
3.2
141
0.0
143
0.0393701
146
0.71
147
1.5
176
     7
177
     7
178
     7
179
     2
271
     3
272
     3
275
     1
283
     0
288
     1
289
     0
340
F
341
2CD
342
2CD
371
    -1
372
    -1
  0
DIMSTYLE
105
2D5
330
A
100
AcDbSymbolTableRecord
100
AcDbDimStyleTableRecord
  2
kuroda_sunpo$4
 70
     0
  4
"
 41
2.5
 42
1.0
 43
8.0
 44
1.0
 47
0.1
 48
0.1
 73
     0
 77
     3
 78
     8
 79
     2
140
3.2
141
0.0
143
0.0393701
146
0.71
147
1.5
176
     7
177
     7
178
     7
179
     2
271
     3
272
     3
275
     1
283
     0
288
     1
289
     0
340
F
341
2CD
342
2CD
371
    -1
372
    -1
  0
DIMSTYLE
105
2D6
330
A
100
AcDbSymbolTableRecord
100
AcDbDimStyleTableRecord
  2
kuroda_sunpo$6
 70
     0
  4
"
 41
2.5
 42
1.0
 43
8.0
 44
1.0
 47
0.1
 48
0.1
 73
     0
 74
     0
 78
     8
 79
     2
140
3.2
141
0.0
143
0.0393701
146
0.71
147
1.5
172
     1
176
     7
177
     7
178
     7
179
     2
271
     3
272
     3
275
     1
283
     0
340
F
341
2CD
342
2CD
371
    -1
372
    -1
  0
DIMSTYLE
105
2D7
330
A
100
AcDbSymbolTableRecord
100
AcDbDimStyleTableRecord
  2
kuroda_sunpo$SF
 70
     0
  4
"
 41
2.5
 42
1.0
 43
8.0
 44
1.0
 47
0.1
 48
0.1
 73
     0
 74
     0
 75
     1
 76
     1
 77
     3
 78
     8
 79
     2
140
5.0
141
0.0
143
0.0393701
146
0.71
147
1.5
172
     1
176
   256
177
   256
178
     7
179
     2
271
     3
272
     3
275
     1
283
     0
340
F
341
32
342
32
371
    -1
372
    -1
  0
DIMSTYLE
105
2DE
330
A
100
AcDbSymbolTableRecord
100
AcDbDimStyleTableRecord
  2
kuroda_sunpo$SH
 70
     0
  4
"
 41
2.5
 42
1.0
 43
8.0
 44
1.0
 47
0.1
 48
0.1
 73
     0
 74
     0
 75
     1
 76
     1
 77
     3
 78
     8
 79
     2
140
5.0
141
0.0
143
0.0393701
144
2.0
146
0.71
147
1.5
172
     1
173
     1
176
   256
177
   256
178
     7
179
     2
271
     3
272
     3
275
     1
283
     0
340
F
341
32
342
32
343
292
371
    -1
372
    -1
  0
DIMSTYLE
105
2F1
330
A
100
AcDbSymbolTableRecord
100
AcDbDimStyleTableRecord
  2
JIS-KURODA
 70
     0
  4
"
 41
2.5
 42
1.0
 43
10.0
 44
1.0
 47
0.1
 48
0.1
 73
     0
 74
     0
 77
     3
 78
     8
 79
     2
140
3.2
141
0.0
143
0.0393701
146
0.71
147
1.5
172
     1
174
     1
176
     7
177
     7
178
     7
271
     2
272
     2
283
     0
284
     8
340
F
341
2CD
342
2CD
371
    -1
372
    -1
  0
DIMSTYLE
105
2F2
330
A
100
AcDbSymbolTableRecord
100
AcDbDimStyleTableRecord
  2
JIS-KURODA$2
 70
     0
  4
"
 41
2.5
 42
1.0
 43
10.0
 44
1.0
 47
0.1
 48
0.1
 73
     0
 74
     0
 77
     3
 78
     8
 79
     2
140
3.2
141
0.0
143
0.0393701
146
0.71
147
1.5
172
     1
174
     1
176
     7
177
     7
178
     7
271
     2
272
     2
283
     0
284
     8
340
F
341
2CD
342
2CD
371
    -1
372
    -1
  0
DIMSTYLE
105
2F3
330
A
100
AcDbSymbolTableRecord
100
AcDbDimStyleTableRecord
  2
JIS-KURODA$3
 70
     0
  4
"
 41
2.5
 42
1.0
 43
10.0
 44
1.0
 47
0.1
 48
0.1
 73
     0
 74
     0
 77
     3
 78
     8
 79
     2
140
3.2
141
0.0
143
0.0393701
146
0.71
147
1.5
172
     1
176
     7
177
     7
178
     7
271
     2
272
     2
283
     0
284
     8
288
     1
289
     2
340
F
341
32
342
2CD
371
    -1
372
    -1
  0
DIMSTYLE
105
2F4
330
A
100
AcDbSymbolTableRecord
100
AcDbDimStyleTableRecord
  2
JIS-KURODA$4
 70
     0
  4
"
 41
2.5
 42
1.0
 43
10.0
 44
1.0
 47
0.1
 48
0.1
 73
     0
 77
     3
 78
     8
 79
     2
140
3.2
141
0.0
143
0.0393701
146
0.71
147
1.5
173
     1
176
     7
177
     7
178
     7
271
     2
272
     2
279
     1
283
     0
284
     8
288
     1
289
     0
340
F
341
32
343
32
344
2CD
371
    -1
372
    -1
  0
DIMSTYLE
105
2F5
330
A
100
AcDbSymbolTableRecord
100
AcDbDimStyleTableRecord
  2
JIS-KURODA$6
 70
     0
  4
"
 41
2.5
 42
1.0
 43
10.0
 44
1.0
 47
0.1
 48
0.1
 73
     0
 74
     0
 78
     8
 79
     2
140
3.2
141
0.0
143
0.0393701
146
0.71
147
1.5
172
     1
176
     7
177
     7
178
     7
271
     2
272
     2
279
     1
283
     0
284
     8
340
F
341
32
342
32
371
    -1
372
    -1
  0
DIMSTYLE
105
2F6
330
A
100
AcDbSymbolTableRecord
100
AcDbDimStyleTableRecord
  2
JIS-KURODA$7
 70
     0
  4
"
 41
2.5
 42
1.0
 43
10.0
 44
1.0
 47
0.1
 48
0.1
 73
     0
 74
     0
 77
     3
 78
     8
 79
     2
140
4.000000000000003
141
0.0
143
0.0393701
146
0.71
147
1.5
172
     1
176
     7
177
     7
178
     7
271
     2
272
     2
279
     1
283
     0
284
     8
340
F
341
2CD
342
32
371
    -1
372
    -1
  0
DIMSTYLE
105
2F7
330
A
100
AcDbSymbolTableRecord
100
AcDbDimStyleTableRecord
  2
JIS-KURODA$SF
 70
     0
  4
"
 41
2.5
 42
1.0
 43
10.0
 44
1.0
 47
0.1
 48
0.1
 73
     0
 74
     0
 75
     1
 76
     1
 77
     3
 78
     8
 79
     2
140
3.5
141
0.0
143
0.0393701
146
0.71
147
1.5
172
     1
176
   256
177
   256
178
     7
271
     2
272
     3
274
     4
283
     0
284
     8
340
F
341
32
342
32
343
32
344
32
371
    -1
372
    -1
  0
DIMSTYLE
105
2F8
330
A
100
AcDbSymbolTableRecord
100
AcDbDimStyleTableRecord
  2
JIS-KURODA$SH
 70
     0
  4
"
 41
2.5
 42
1.0
 43
10.0
 44
1.0
 47
0.1
 48
0.1
 73
     0
 74
     0
 75
     1
 76
     1
 77
     3
 78
     8
 79
     2
140
3.5
141
0.0
143
0.0393701
144
2.0
146
0.71
147
1.5
172
     1
173
     1
176
   256
177
   256
178
     7
271
     2
272
     3
274
     4
283
     0
284
     8
340
F
341
32
342
32
343
292
344
32
371
    -1
372
    -1
  0
DIMSTYLE
105
36C
330
A
100
AcDbSymbolTableRecord
100
AcDbDimStyleTableRecord
  2
JIS-KURODA$0
 70
     0
  4
"
 41
2.5
 42
1.0
 43
10.0
 44
1.0
 47
0.1
 48
0.1
 73
     0
 74
     0
 77
     3
 78
     8
 79
     2
140
3.2
141
0.0
143
0.0393701
146
0.71
147
1.5
172
     1
174
     1
176
     7
177
     7
178
     7
271
     2
272
     2
283
     0
284
     8
340
F
341
2CD
342
2CD
371
    -1
372
    -1
1001
ACAD_DSTYLE_DIMARC_LENGTH_SYMBOL
1070
   379
1070
     1
1001
ACAD_DSTYLE_DIMJOGGED_JOGANGLE_SYMBOL
1070
   384
1040
0.7853981633974483
  0
ENDTAB
  0
TABLE
  2
BLOCK_RECORD
  5
1
330
0
100
AcDbSymbolTable
 70
     4
  0
BLOCK_RECORD
  5
18
102
{ACAD_XDICTIONARY
360
20D
102
}
330
1
100
AcDbSymbolTableRecord
100
AcDbBlockTableRecord
  2
*MODEL_SPACE
340
60
  0
BLOCK_RECORD
  5
15
102
{ACAD_XDICTIONARY
360
20B
102
}
330
1
100
AcDbSymbolTableRecord
100
AcDbBlockTableRecord
  2
*PAPER_SPACE
340
61
  0
BLOCK_RECORD
  5
32
330
1
100
AcDbSymbolTableRecord
100
AcDbBlockTableRecord
  2
_Open30
340
0
  0
BLOCK_RECORD
  5
292
330
1
100
AcDbSymbolTableRecord
100
AcDbBlockTableRecord
  2
GENAXEH
340
0
  0
BLOCK_RECORD
  5
2CD
330
1
100
AcDbSymbolTableRecord
100
AcDbBlockTableRecord
  2
_Open
340
0
  0
ENDTAB
  0
ENDSEC
  0
SECTION
  2
BLOCKS
  0
BLOCK
  5
19
330
18
100
AcDbEntity
  8
0
100
AcDbBlockBegin
  2
*MODEL_SPACE
 70
     0
 10
0.0
 20
0.0
 30
0.0
  3
*MODEL_SPACE
  1

  0
ENDBLK
  5
1A
330
18
100
AcDbEntity
  8
0
100
AcDbBlockEnd
  0
BLOCK
  5
16
330
15
100
AcDbEntity
 67
     1
  8
0
100
AcDbBlockBegin
  2
*PAPER_SPACE
 70
     0
 10
0.0
 20
0.0
 30
0.0
  3
*PAPER_SPACE
  1

  0
ENDBLK
  5
17
330
15
100
AcDbEntity
 67
     1
  8
0
100
AcDbBlockEnd
  0
BLOCK
  5
C98
330
32
100
AcDbEntity
  8
0
100
AcDbBlockBegin
  2
_Open30
 70
     0
 10
0.0
 20
0.0
 30
0.0
  3
_Open30
  1

  0
LINE
  5
C99
330
32
100
AcDbEntity
  8
0
 62
     0
370
    -2
100
AcDbLine
 10
-1.0
 20
0.26794919
 30
0.0
 11
0.0
 21
0.0
 31
0.0
  0
LINE
  5
C9A
330
32
100
AcDbEntity
  8
0
 62
     0
370
    -2
100
AcDbLine
 10
0.0
 20
0.0
 30
0.0
 11
-1.0
 21
-0.26794919
 31
0.0
  0
LINE
  5
C9B
330
32
100
AcDbEntity
  8
0
 62
     0
370
    -2
100
AcDbLine
 10
0.0
 20
0.0
 30
0.0
 11
-1.0
 21
0.0
 31
0.0
  0
ENDBLK
  5
C9C
330
32
100
AcDbEntity
  8
0
100
AcDbBlockEnd
  0
BLOCK
  5
C52
330
292
100
AcDbEntity
  8
0
100
AcDbBlockBegin
  2
GENAXEH
 70
     0
 10
0.0
 20
0.0
 30
0.0
  3
GENAXEH
  1

  0
LINE
  5
C53
330
292
100
AcDbEntity
  8
0
100
AcDbLine
 10
-1.0
 20
0.0
 30
0.0
 11
1.0
 21
0.0
 31
0.0
  0
ENDBLK
  5
C54
330
292
100
AcDbEntity
  8
0
100
AcDbBlockEnd
  0
BLOCK
  5
C8D
330
2CD
100
AcDbEntity
  8
0
100
AcDbBlockBegin
  2
_Open
 70
     0
 10
0.0
 20
0.0
 30
0.0
  3
_Open
  1

  0
LINE
  5
C8E
330
2CD
100
AcDbEntity
  8
outline
 62
     0
370
    -2
100
AcDbLine
 10
-1.0
 20
0.1666666666666666
 30
0.0
 11
0.0
 21
0.0
 31
0.0
  0
LINE
  5
C90
330
2CD
100
AcDbEntity
  8
outline
 62
     0
370
    -2
100
AcDbLine
 10
-1.0
 20
-0.1666666666666666
 30
0.0
 11
0.0
 21
0.0
 31
0.0
  0
LINE
  5
C91
330
2CD
100
AcDbEntity
  8
outline
 62
     0
370
    -2
100
AcDbLine
 10
0.0
 20
0.0
 30
0.0
 11
-1.0
 21
0.0
 31
0.0
  0
ENDBLK
  5
C92
330
2CD
100
AcDbEntity
  8
0
100
AcDbBlockEnd
  0
ENDSEC
  0
SECTION
  2
ENTITIES
  0
LINE
  5
76
330
18
100
AcDbEntity
  8
PV0001_1
  6
Continuous
370
    50
100
AcDbLine
 10
-90.0
 20
138.5
 30
0.0
 11
501.0
 21
138.5
 31
0.0
  0
LINE
  5
77
330
18
100
AcDbEntity
  8
PV0001_1
  6
Continuous
370
    50
100
AcDbLine
 10
-90.0
 20
-138.5
 30
0.0
 11
501.0
 21
-138.5
 31
0.0
  0
LINE
  5
78
330
18
100
AcDbEntity
  8
PV0001_1
  6
Continuous
370
    50
100
AcDbLine
 10
-90.0
 20
138.5
 30
0.0
 11
-90.0
 21
-138.5
 31
0.0
  0
LINE
  5
79
330
18
100
AcDbEntity
  8
PV0001_1
  6
Continuous
 48
0.5
370
    50
100
AcDbLine
 10
-87.0
 20
130.10000610351
 30
0.0
 11
-85.399993896484
 21
130.10000610351
 31
0.0
  0
LINE
  5
7A
330
18
100
AcDbEntity
  8
PV0001_1
  6
Continuous
 48
0.5
370
    50
100
AcDbLine
 10
-87.0
 20
134.89999389648
 30
0.0
 11
-87.0
 21
130.10000610351
 31
0.0
  0
LINE
  5
7B
330
18
100
AcDbEntity
  8
PV0001_1
  6
Continuous
 48
0.5
370
    50
100
AcDbLine
 10
-87.0
 20
134.89999389648
 30
0.0
 11
-85.399993896484
 21
134.89999389648
 31
0.0
  0
LINE
  5
7C
330
18
100
AcDbEntity
  8
PV0001_1
  6
Continuous
 48
0.5
370
    50
100
AcDbLine
 10
-85.399993896484
 20
134.89999389648
 30
0.0
 11
-85.399993896484
 21
133.30000305175
 31
0.0
  0
LINE
  5
7D
330
18
100
AcDbEntity
  8
PV0001_1
  6
Continuous
 48
0.5
370
    50
100
AcDbLine
 10
-80.399993896484
 20
134.89999389648
 30
0.0
 11
-80.399993896484
 21
131.30000305175
 31
0.0
  0
LINE
  5
7E
330
18
100
AcDbEntity
  8
PV0001_1
  6
Continuous
 48
0.5
370
    50
100
AcDbLine
 10
-79.199996948242
 20
130.10000610351
 30
0.0
 11
-75.399993896484
 21
130.10000610351
 31
0.0
  0
LINE
  5
7F
330
18
100
AcDbEntity
  8
PV0001_1
  6
Continuous
 48
0.5
370
    50
100
AcDbLine
 10
-80.399993896484
 20
134.89999389648
 30
0.0
 11
-79.0
 21
134.89999389648
 31
0.0
  0
LINE
  5
80
330
18
100
AcDbEntity
  8
PV0001_1
  6
Continuous
 48
0.5
370
    50
100
AcDbLine
 10
-85.199996948242
 20
132.5
 30
0.0
 11
-84.30000305175701
 21
132.5
 31
0.0
  0
LINE
  5
81
330
18
100
AcDbEntity
  8
PV0001_1
  6
Continuous
 48
0.5
370
    50
100
AcDbLine
 10
-85.199996948242
 20
133.10000610351
 30
0.0
 11
-84.29782104492099
 21
133.10000610351
 31
0.0
  0
LINE
  5
82
330
18
100
AcDbEntity
  8
PV0001_1
  6
Continuous
 48
0.5
370
    50
100
AcDbLine
 10
-84.14004516601499
 20
132.41998291015
 30
0.0
 11
-82.40003967285097
 21
130.09997558593
 31
0.0
  0
LINE
  5
83
330
18
100
AcDbEntity
  8
PV0001_1
  6
Continuous
 48
0.5
370
    50
100
AcDbLine
 10
-82.67945098876898
 20
132.75942993164
 30
0.0
 11
-80.39997863769498
 21
130.10003662109
 31
0.0
  0
LINE
  5
84
330
18
100
AcDbEntity
  8
PV0001_1
  6
Continuous
 48
0.5
370
    50
100
AcDbLine
 10
-84.13994598388597
 20
133.17721557617
 30
0.0
 11
-82.800003051757
 21
134.90000915527
 31
0.0
  0
LINE
  5
85
330
18
100
AcDbEntity
  8
PV0001_1
  6
Continuous
 48
0.5
370
    50
100
AcDbLine
 10
-82.669021606445
 20
133.03092956542
 30
0.0
 11
-80.799972534179
 21
134.89997863769
 31
0.0
  0
LINE
  5
86
330
18
100
AcDbEntity
  8
PV0001_1
  6
Continuous
 48
0.5
370
    50
100
AcDbLine
 10
-82.39999389648401
 20
130.10000610351
 30
0.0
 11
-80.399993896484
 21
130.10000610351
 31
0.0
  0
LINE
  5
87
330
18
100
AcDbEntity
  8
PV0001_1
  6
Continuous
 48
0.5
370
    50
100
AcDbLine
 10
-82.800003051757
 20
134.89999389648
 30
0.0
 11
-80.80000305175699
 21
134.89999389648
 31
0.0
  0
LINE
  5
88
330
18
100
AcDbEntity
  8
PV0001_1
  6
Continuous
 48
0.5
370
    50
100
AcDbLine
 10
-85.399993896484
 20
132.30000305175
 30
0.0
 11
-85.399993896484
 21
130.10000610351
 31
0.0
  0
LINE
  5
89
330
18
100
AcDbEntity
  8
PV0001_1
  6
Continuous
 48
0.5
370
    50
100
AcDbLine
 10
-74.199996948242
 20
134.90000915527
 30
0.0
 11
-74.199996948242
 21
131.30000305175
 31
0.0
  0
LINE
  5
8A
330
18
100
AcDbEntity
  8
PV0001_1
  6
Continuous
 48
0.5
370
    50
100
AcDbLine
 10
-79.0
 20
134.89999389648
 30
0.0
 11
-79.0
 21
131.5
 31
0.0
  0
LINE
  5
8B
330
18
100
AcDbEntity
  8
PV0001_1
  6
Continuous
 48
0.5
370
    50
100
AcDbLine
 10
-75.600006103515
 20
134.90000915527
 30
0.0
 11
-75.600006103515
 21
131.5
 31
0.0
  0
LINE
  5
8C
330
18
100
AcDbEntity
  8
PV0001_1
  6
Continuous
 48
0.5
370
    50
100
AcDbLine
 10
-78.39999389648401
 20
130.89999389648
 30
0.0
 11
-76.199996948242
 21
130.89999389648
 31
0.0
  0
LINE
  5
8D
330
18
100
AcDbEntity
  8
PV0001_1
  6
Continuous
 48
0.5
370
    50
100
AcDbLine
 10
-75.600006103515
 20
134.89999389648
 30
0.0
 11
-74.199996948242
 21
134.89999389648
 31
0.0
  0
LINE
  5
8E
330
18
100
AcDbEntity
  8
PV0001_1
  6
Continuous
 48
0.5
370
    50
100
AcDbLine
 10
-73.699996948242
 20
134.89999389648
 30
0.0
 11
-69.0
 21
134.89999389648
 31
0.0
  0
LINE
  5
8F
330
18
100
AcDbEntity
  8
PV0001_1
  6
Continuous
 48
0.5
370
    50
100
AcDbLine
 10
-73.699996948242
 20
130.10000610351
 30
0.0
 11
-72.10000610351499
 21
130.10000610351
 31
0.0
  0
LINE
  5
90
330
18
100
AcDbEntity
  8
PV0001_1
  6
Continuous
 48
0.5
370
    50
100
AcDbLine
 10
-73.699996948242
 20
134.90000915527
 30
0.0
 11
-73.699996948242
 21
130.10000610351
 31
0.0
  0
LINE
  5
91
330
18
100
AcDbEntity
  8
PV0001_1
  6
Continuous
 48
0.5
370
    50
100
AcDbLine
 10
-69.199996948242
 20
133.70001220703
 30
0.0
 11
-69.199996948242
 21
133.0
 31
0.0
  0
LINE
  5
92
330
18
100
AcDbEntity
  8
PV0001_1
  6
Continuous
 48
0.5
370
    50
100
AcDbLine
 10
-72.10000610351499
 20
134.10000610351
 30
0.0
 11
-72.10000610351499
 21
132.60000610351
 31
0.0
  0
LINE
  5
93
330
18
100
AcDbEntity
  8
PV0001_1
  6
Continuous
 48
0.5
370
    50
100
AcDbLine
 10
-71.699996948242
 20
131.69999694824
 30
0.0
 11
-69.800003051757
 21
131.69999694824
 31
0.0
  0
LINE
  5
94
330
18
100
AcDbEntity
  8
PV0001_1
  6
Continuous
 48
0.5
370
    50
100
AcDbLine
 10
-71.899993896484
 20
134.30000305175
 30
0.0
 11
-69.800003051757
 21
134.30000305175
 31
0.0
  0
LINE
  5
95
330
18
100
AcDbEntity
  8
PV0001_1
  6
Continuous
 48
0.5
370
    50
100
AcDbLine
 10
-71.899993896484
 20
132.39999389648
 30
0.0
 11
-69.800003051757
 21
132.39999389648
 31
0.0
  0
LINE
  5
96
330
18
100
AcDbEntity
  8
PV0001_1
  6
Continuous
 48
0.5
370
    50
100
AcDbLine
 10
-69.199996948242
 20
130.10000610351
 30
0.0
 11
-67.5
 21
130.10000610351
 31
0.0
  0
LINE
  5
97
330
18
100
AcDbEntity
  8
PV0001_1
  6
Continuous
 48
0.5
370
    50
100
AcDbLine
 10
-72.10000610351499
 20
131.30000305175
 30
0.0
 11
-72.10000610351499
 21
130.10000610351
 31
0.0
  0
LINE
  5
98
330
18
100
AcDbEntity
  8
PV0001_1
  6
Continuous
 48
0.5
370
    50
100
AcDbLine
 10
-65.800003051757
 20
130.10000610351
 30
0.0
 11
-62.0
 21
130.10000610351
 31
0.0
  0
LINE
  5
99
330
18
100
AcDbEntity
  8
PV0001_1
  6
Continuous
 48
0.5
370
    50
100
AcDbLine
 10
-64.800003051757
 20
134.30000305175
 30
0.0
 11
-63.0
 21
134.30000305175
 31
0.0
  0
LINE
  5
9A
330
18
100
AcDbEntity
  8
PV0001_1
  6
Continuous
 48
0.5
370
    50
100
AcDbLine
 10
-65.800003051757
 20
134.89999389648
 30
0.0
 11
-62.0
 21
134.89999389648
 31
0.0
  0
LINE
  5
9B
330
18
100
AcDbEntity
  8
PV0001_1
  6
Continuous
 48
0.5
370
    50
100
AcDbLine
 10
-69.199996948242
 20
131.10000610351
 30
0.0
 11
-69.199996948242
 21
130.10000610351
 31
0.0
  0
LINE
  5
9C
330
18
100
AcDbEntity
  8
PV0001_1
  6
Continuous
 48
0.5
370
    50
100
AcDbLine
 10
-67.199996948242
 20
133.5
 30
0.0
 11
-67.199996948242
 21
131.5
 31
0.0
  0
LINE
  5
9D
330
18
100
AcDbEntity
  8
PV0001_1
  6
Continuous
 48
0.5
370
    50
100
AcDbLine
 10
-60.60000610351499
 20
133.5
 30
0.0
 11
-60.60000610351499
 21
131.5
 31
0.0
  0
LINE
  5
9E
330
18
100
AcDbEntity
  8
PV0001_1
  6
Continuous
 48
0.5
370
    50
100
AcDbLine
 10
-60.20634460449199
 20
130.10000610351
 30
0.0
 11
-55.199996948242
 21
130.10000610351
 31
0.0
  0
LINE
  5
9F
330
18
100
AcDbEntity
  8
PV0001_1
  6
Continuous
 48
0.5
370
    50
100
AcDbLine
 10
-58.39999389648401
 20
134.30000305175
 30
0.0
 11
-56.19999694824199
 21
134.30000305175
 31
0.0
  0
LINE
  5
A0
330
18
100
AcDbEntity
  8
PV0001_1
  6
Continuous
 48
0.5
370
    50
100
AcDbLine
 10
-60.199996948242
 20
134.89999389648
 30
0.0
 11
-55.199996948242
 21
134.89999389648
 31
0.0
  0
LINE
  5
A1
330
18
100
AcDbEntity
  8
PV0001_1
  6
Continuous
 48
0.5
370
    50
100
AcDbLine
 10
-64.800003051757
 20
130.89999389648
 30
0.0
 11
-63.0
 21
130.89999389648
 31
0.0
  0
LINE
  5
A2
330
18
100
AcDbEntity
  8
PV0001_1
  6
Continuous
 48
0.5
370
    50
100
AcDbLine
 10
-65.600006103515
 20
133.5
 30
0.0
 11
-65.600006103515
 21
131.70001220703
 31
0.0
  0
LINE
  5
A3
330
18
100
AcDbEntity
  8
PV0001_1
  6
Continuous
 48
0.5
370
    50
100
AcDbLine
 10
-62.19999694824199
 20
133.5
 30
0.0
 11
-62.19999694824199
 21
131.70001220703
 31
0.0
  0
LINE
  5
A4
330
18
100
AcDbEntity
  8
PV0001_1
  6
Continuous
 48
0.5
370
    50
100
AcDbLine
 10
-53.800003051757
 20
133.50001525878
 30
0.0
 11
-53.800003051757
 21
131.50001525878
 31
0.0
  0
LINE
  5
A5
330
18
100
AcDbEntity
  8
PV0001_1
  6
Continuous
 48
0.5
370
    50
100
AcDbLine
 10
-60.199996948242
 20
134.90000915527
 30
0.0
 11
-60.199996948242
 21
130.10000610351
 31
0.0
  0
LINE
  5
A6
330
18
100
AcDbEntity
  8
PV0001_1
  6
Continuous
 48
0.5
370
    50
100
AcDbLine
 10
-58.60000610351499
 20
134.10000610351
 30
0.0
 11
-58.60000610351499
 21
131.10000610351
 31
0.0
  0
LINE
  5
A7
330
18
100
AcDbEntity
  8
PV0001_1
  6
Continuous
 48
0.5
370
    50
100
AcDbLine
 10
-55.399993896484
 20
133.50001525878
 30
0.0
 11
-55.399993896484
 21
131.70001220703
 31
0.0
  0
LINE
  5
A8
330
18
100
AcDbEntity
  8
PV0001_1
  6
Continuous
 48
0.5
370
    50
100
AcDbLine
 10
-58.39999389648401
 20
130.89999389648
 30
0.0
 11
-56.19999694824199
 21
130.89999389648
 31
0.0
  0
LINE
  5
A9
330
18
100
AcDbEntity
  8
PV0001_1
  6
Continuous
 48
0.5
370
    50
100
AcDbLine
 10
-53.800003051757
 20
130.10000610351
 30
0.0
 11
-52.19999694824199
 21
130.10000610351
 31
0.0
  0
LINE
  5
AA
330
18
100
AcDbEntity
  8
PV0001_1
  6
Continuous
 48
0.5
370
    50
100
AcDbLine
 10
-50.65585327148401
 20
134.30000305175
 30
0.0
 11
-49.744140625
 21
134.30000305175
 31
0.0
  0
LINE
  5
AB
330
18
100
AcDbEntity
  8
PV0001_1
  6
Continuous
 48
0.5
370
    50
100
AcDbLine
 10
-51.800003051757
 20
134.89999389648
 30
0.0
 11
-48.60000610351499
 21
134.89999389648
 31
0.0
  0
LINE
  5
AC
330
18
100
AcDbEntity
  8
PV0001_1
  6
Continuous
 48
0.5
370
    50
100
AcDbLine
 10
-51.72250366210899
 20
131.10000610351
 30
0.0
 11
-48.677490234375
 21
131.10000610351
 31
0.0
  0
LINE
  5
AD
330
18
100
AcDbEntity
  8
PV0001_1
  6
Continuous
 48
0.5
370
    50
100
AcDbLine
 10
-51.322509765625
 20
131.89999389648
 30
0.0
 11
-50.32839965820301
 21
131.89999389648
 31
0.0
  0
LINE
  5
AE
330
18
100
AcDbEntity
  8
PV0001_1
  6
Continuous
 48
0.5
370
    50
100
AcDbLine
 10
-52.199924468994
 20
130.09999084472
 30
0.0
 11
-51.912174224853
 21
130.96322631835
 31
0.0
  0
LINE
  5
AF
330
18
100
AcDbEntity
  8
PV0001_1
  6
Continuous
 48
0.5
370
    50
100
AcDbLine
 10
-49.554355621337
 20
134.16328430175
 30
0.0
 11
-48.887687683105
 21
132.16328430175
 31
0.0
  0
LINE
  5
B0
330
18
100
AcDbEntity
  8
PV0001_1
  6
Continuous
 48
0.5
370
    50
100
AcDbLine
 10
-51.800006866455
 20
134.90000915527
 30
0.0
 11
-53.800010681152
 21
130.10000610351
 31
0.0
  0
LINE
  5
B1
330
18
100
AcDbEntity
  8
PV0001_1
  6
Continuous
 48
0.5
370
    50
100
AcDbLine
 10
-48.600002288818
 20
134.89999389648
 30
0.0
 11
-46.60000610351499
 21
130.09999084472
 31
0.0
  0
LINE
  5
B2
330
18
100
AcDbEntity
  8
PV0001_1
  6
Continuous
 48
0.5
370
    50
100
AcDbLine
 10
-51.512172698974
 20
132.16323852539
 30
0.0
 11
-50.845508575439
 21
134.1632232666
 31
0.0
  0
LINE
  5
B3
330
18
100
AcDbEntity
  8
PV0001_1
  6
Continuous
 48
0.5
370
    50
100
AcDbLine
 10
-48.487682342529
 20
130.96327209472
 30
0.0
 11
-48.19993972778298
 21
130.10003662109
 31
0.0
  0
LINE
  5
B4
330
18
100
AcDbEntity
  8
PV0001_1
  6
Continuous
 48
0.5
370
    50
100
AcDbLine
 10
-48.199996948242
 20
130.10000610351
 30
0.0
 11
-46.60000610351499
 21
130.10000610351
 31
0.0
  0
LINE
  5
B5
330
18
100
AcDbEntity
  8
PV0001_1
  6
Continuous
 48
0.5
370
    50
100
AcDbLine
 10
-50.32839965820301
 20
131.89999389648
 30
0.0
 11
-49.07748413085901
 21
131.89999389648
 31
0.0
  0
LINE
  5
B6
330
18
100
AcDbEntity
  8
PV0001_1
  6
Continuous
 48
0.5
370
    50
100
AcDbLine
 10
-43.60000610351499
 20
138.5
 30
0.0
 11
-43.60000610351499
 21
126.5
 31
0.0
  0
LINE
  5
B7
330
18
100
AcDbEntity
  8
PV0001_1
  6
Continuous
370
    50
100
AcDbLine
 10
-90.0
 20
126.5
 30
0.0
 11
169.30798339843
 21
126.5
 31
0.0
  0
LINE
  5
B8
330
18
100
AcDbEntity
  8
PV0001_1
  6
Continuous
 48
0.5
370
    50
100
AcDbLine
 10
18.399993896484
 20
138.5
 30
0.0
 11
18.399993896484
 21
126.5
 31
0.0
  0
LINE
  5
B9
330
18
100
AcDbEntity
  8
PV0001_1
  6
Continuous
 48
0.5
370
    50
100
AcDbLine
 10
142.39999389648
 20
138.5
 30
0.0
 11
142.39999389648
 21
126.5
 31
0.0
  0
LINE
  5
BA
330
18
100
AcDbEntity
  8
PV0001_1
  6
CENTER2
 48
0.5
370
    25
100
AcDbLine
 10
145.55735778808
 20
132.5
 30
0.0
 11
153.14462280273
 21
132.5
 31
0.0
  0
LINE
  5
BB
330
18
100
AcDbEntity
  8
PV0001_1
  6
CENTER2
 48
0.5
370
    25
100
AcDbLine
 10
149.39999389648
 20
136.44480895996
 30
0.0
 11
149.39999389648
 21
128.76712036132
 31
0.0
  0
LINE
  5
BC
330
18
100
AcDbEntity
  8
PV0001_1
  6
CENTER2
 48
0.5
370
    25
100
AcDbLine
 10
157.48554992675
 20
132.5
 30
0.0
 11
165.9214477539
 21
132.5
 31
0.0
  0
LINE
  5
BD
330
18
100
AcDbEntity
  8
PV0001_1
  6
Continuous
 48
0.5
370
   100
100
AcDbLine
 10
158.32803344726
 20
134.11965942382
 30
0.0
 11
164.80804443359
 21
135.19966125488
 31
0.0
  0
LINE
  5
BE
330
18
100
AcDbEntity
  8
PV0001_1
  6
Continuous
 48
0.5
370
   100
100
AcDbLine
 10
158.3279724121
 20
134.11999511718
 30
0.0
 11
158.3279724121
 21
130.87995910644
 31
0.0
  0
LINE
  5
BF
330
18
100
AcDbEntity
  8
PV0001_1
  6
Continuous
 48
0.5
370
   100
100
AcDbLine
 10
158.32800292968
 20
130.87962341308
 30
0.0
 11
164.80799865722
 21
129.79962158203
 31
0.0
  0
LINE
  5
C0
330
18
100
AcDbEntity
  8
PV0001_1
  6
Continuous
 48
0.5
370
   100
100
AcDbLine
 10
164.80798339843
 20
135.19999694824
 30
0.0
 11
164.80798339843
 21
129.80000305175
 31
0.0
  0
LINE
  5
C1
330
18
100
AcDbEntity
  8
PV0001_1
  6
Continuous
 48
0.5
370
    50
100
AcDbLine
 10
169.30798339843
 20
138.5
 30
0.0
 11
169.30798339843
 21
126.5
 31
0.0
  0
LINE
  5
C2
330
18
100
AcDbEntity
  8
PV0001_1
  6
Continuous
370
    50
100
AcDbLine
 10
501.0
 20
138.5
 30
0.0
 11
501.0
 21
-138.5
 31
0.0
  0
LINE
  5
D4
330
18
100
AcDbEntity
  8
PV0001_1
  6
CENTER2
370
    25
100
AcDbLine
 10
187.2222290039
 20
0.0
 30
0.0
 11
422.3361803402452
 21
0.0000000000000014
 31
0.0
  0
LINE
  5
E3
330
18
100
AcDbEntity
  8
PV0001_1
  6
Continuous
370
    50
100
AcDbLine
 10
198.33332824707
 20
20.0
 30
0.0
 11
265.0
 21
20.0
 31
0.0
  0
LINE
  5
E4
330
18
100
AcDbEntity
  8
PV0001_1
  6
Continuous
370
    50
100
AcDbLine
 10
198.33332824707
 20
-20.0
 30
0.0
 11
265.0
 21
-20.0
 31
0.0
  0
LINE
  5
E5
330
18
100
AcDbEntity
  8
PV0001_1
  6
Continuous
370
    50
100
AcDbLine
 10
343.0
 20
-20.0
 30
0.0
 11
409.66668701171
 21
-20.0
 31
0.0
  0
LINE
  5
E6
330
18
100
AcDbEntity
  8
PV0001_1
  6
Continuous
370
    50
100
AcDbLine
 10
343.0
 20
20.0
 30
0.0
 11
409.66668701171
 21
20.0
 31
0.0
  0
LINE
  5
E7
330
18
100
AcDbEntity
  8
PV0001_1
  6
Continuous
370
    25
100
AcDbLine
 10
343.0
 20
-18.072999954223
 30
0.0
 11
409.66668701171
 21
-18.072999954223
 31
0.0
  0
LINE
  5
E8
330
18
100
AcDbEntity
  8
PV0001_1
  6
Continuous
370
    25
100
AcDbLine
 10
343.0
 20
18.072999954223
 30
0.0
 11
409.66668701171
 21
18.072999954223
 31
0.0
  0
LINE
  5
E9
330
18
100
AcDbEntity
  8
PV0001_1
  6
Continuous
370
    25
100
AcDbLine
 10
198.33332824707
 20
18.072999954223
 30
0.0
 11
265.0
 21
18.072999954223
 31
0.0
  0
LINE
  5
EA
330
18
100
AcDbEntity
  8
PV0001_1
  6
Continuous
370
    25
100
AcDbLine
 10
198.33332824707
 20
-18.072999954223
 30
0.0
 11
265.0
 21
-18.072999954223
 31
0.0
  0
ARC
  5
160
330
18
100
AcDbEntity
  8
PV0001_1
  6
Continuous
 48
0.5
370
    50
100
AcDbCircle
 10
-82.527618408203
 20
132.88954162597
 30
0.0
 40
0.2000000029802
100
AcDbArc
 50
135.0000549831359
 51
220.6012585677736
  0
ARC
  5
161
330
18
100
AcDbEntity
  8
PV0001_1
  6
Continuous
 48
0.5
370
    50
100
AcDbCircle
 10
-84.29782104492099
 20
133.30000305175
 30
0.0
 40
0.2000000029802
100
AcDbArc
 50
270.0000179860904
 51
322.1249959578259
  0
ARC
  5
162
330
18
100
AcDbEntity
  8
PV0001_1
  6
Continuous
 48
0.5
370
    50
100
AcDbCircle
 10
-84.30000305175701
 20
132.30000305175
 30
0.0
 40
0.2000000029802
100
AcDbArc
 50
36.86990755486351
 51
89.99998201390965
  0
ARC
  5
163
330
18
100
AcDbEntity
  8
PV0001_1
  6
Continuous
 48
0.5
370
    50
100
AcDbCircle
 10
-85.199996948242
 20
133.30000305175
 30
0.0
 40
0.2000000029802
100
AcDbArc
 50
179.9999776881987
 51
270.0000280040004
  0
ARC
  5
164
330
18
100
AcDbEntity
  8
PV0001_1
  6
Continuous
 48
0.5
370
    50
100
AcDbCircle
 10
-85.199996948242
 20
132.30000305175
 30
0.0
 40
0.2000000029802
100
AcDbArc
 50
89.99998201390965
 51
179.9999640278191
  0
ARC
  5
165
330
18
100
AcDbEntity
  8
PV0001_1
  6
Continuous
 48
0.5
370
    50
100
AcDbCircle
 10
-79.199996948242
 20
131.30000305175
 30
0.0
 40
1.2000000476837
100
AcDbArc
 50
179.9999776881987
 51
270.0000280040004
  0
ARC
  5
166
330
18
100
AcDbEntity
  8
PV0001_1
  6
Continuous
 48
0.5
370
    50
100
AcDbCircle
 10
-75.399993896484
 20
131.30000305175
 30
0.0
 40
1.2000000476837
100
AcDbArc
 50
270.0000179860904
 51
0.0
  0
ARC
  5
167
330
18
100
AcDbEntity
  8
PV0001_1
  6
Continuous
 48
0.5
370
    50
100
AcDbCircle
 10
-76.199996948242
 20
131.5
 30
0.0
 40
0.6000000238419
100
AcDbArc
 50
270.0000179860904
 51
0.0
  0
ARC
  5
168
330
18
100
AcDbEntity
  8
PV0001_1
  6
Continuous
 48
0.5
370
    50
100
AcDbCircle
 10
-78.39999389648401
 20
131.5
 30
0.0
 40
0.6000000238419
100
AcDbArc
 50
179.9999776881987
 51
270.0000280040004
  0
ARC
  5
169
330
18
100
AcDbEntity
  8
PV0001_1
  6
Continuous
 48
0.5
370
    50
100
AcDbCircle
 10
-69.5
 20
130.10000610351
 30
0.0
 40
2.0
100
AcDbArc
 50
0.0
 51
54.42673123145972
  0
ARC
  5
16A
330
18
100
AcDbEntity
  8
PV0001_1
  6
Continuous
 48
0.5
370
    50
100
AcDbCircle
 10
-69.0
 20
133.40000915527
 30
0.0
 40
1.5
100
AcDbArc
 50
0.0
 51
89.99998201390965
  0
ARC
  5
16B
330
18
100
AcDbEntity
  8
PV0001_1
  6
Continuous
 48
0.5
370
    50
100
AcDbCircle
 10
-69.0
 20
133.40000915527
 30
0.0
 40
1.5
100
AcDbArc
 50
297.304990098971
 51
0.0
  0
ARC
  5
16C
330
18
100
AcDbEntity
  8
PV0001_1
  6
Continuous
 48
0.5
370
    50
100
AcDbCircle
 10
-71.699996948242
 20
131.30000305175
 30
0.0
 40
0.4000000059605
100
AcDbArc
 50
89.99998201390965
 51
179.9999640278191
  0
ARC
  5
16D
330
18
100
AcDbEntity
  8
PV0001_1
  6
Continuous
 48
0.5
370
    50
100
AcDbCircle
 10
-69.800003051757
 20
131.10000610351
 30
0.0
 40
0.6000000238419
100
AcDbArc
 50
0.0
 51
89.99998201390965
  0
ARC
  5
16E
330
18
100
AcDbEntity
  8
PV0001_1
  6
Continuous
 48
0.5
370
    50
100
AcDbCircle
 10
-68.220169067382
 20
131.88941955566
 30
0.0
 40
0.2000000029802
100
AcDbArc
 50
117.3049472966005
 51
234.4267362404176
  0
ARC
  5
16F
330
18
100
AcDbEntity
  8
PV0001_1
  6
Continuous
 48
0.5
370
    50
100
AcDbCircle
 10
-71.899993896484
 20
134.10000610351
 30
0.0
 40
0.2000000029802
100
AcDbArc
 50
89.99998201390965
 51
179.9999640278191
  0
ARC
  5
170
330
18
100
AcDbEntity
  8
PV0001_1
  6
Continuous
 48
0.5
370
    50
100
AcDbCircle
 10
-71.899993896484
 20
132.60000610351
 30
0.0
 40
0.2000000029802
100
AcDbArc
 50
179.9999776881987
 51
270.0000280040004
  0
ARC
  5
171
330
18
100
AcDbEntity
  8
PV0001_1
  6
Continuous
 48
0.5
370
    50
100
AcDbCircle
 10
-69.800003051757
 20
133.0
 30
0.0
 40
0.6000000238419
100
AcDbArc
 50
270.0000179860904
 51
0.0
  0
ARC
  5
172
330
18
100
AcDbEntity
  8
PV0001_1
  6
Continuous
 48
0.5
370
    50
100
AcDbCircle
 10
-69.800003051757
 20
133.70001220703
 30
0.0
 40
0.6000000238419
100
AcDbArc
 50
0.0
 51
89.99998201390965
  0
ARC
  5
173
330
18
100
AcDbEntity
  8
PV0001_1
  6
Continuous
 48
0.5
370
    50
100
AcDbCircle
 10
-65.800003051757
 20
131.5
 30
0.0
 40
1.399999976158099
100
AcDbArc
 50
179.9999776881987
 51
270.0000280040004
  0
ARC
  5
174
330
18
100
AcDbEntity
  8
PV0001_1
  6
Continuous
 48
0.5
370
    50
100
AcDbCircle
 10
-62.0
 20
131.5
 30
0.0
 40
1.399999976158099
100
AcDbArc
 50
270.0000179860904
 51
0.0
  0
ARC
  5
175
330
18
100
AcDbEntity
  8
PV0001_1
  6
Continuous
 48
0.5
370
    50
100
AcDbCircle
 10
-62.0
 20
133.5
 30
0.0
 40
1.399999976158099
100
AcDbArc
 50
0.0
 51
89.99998201390965
  0
ARC
  5
176
330
18
100
AcDbEntity
  8
PV0001_1
  6
Continuous
 48
0.5
370
    50
100
AcDbCircle
 10
-65.800003051757
 20
133.5
 30
0.0
 40
1.399999976158099
100
AcDbArc
 50
89.99998201390965
 51
179.9999640278191
  0
ARC
  5
177
330
18
100
AcDbEntity
  8
PV0001_1
  6
Continuous
 48
0.5
370
    50
100
AcDbCircle
 10
-64.800003051757
 20
133.5
 30
0.0
 40
0.8000000119209001
100
AcDbArc
 50
89.99998201390965
 51
179.9999640278191
  0
ARC
  5
178
330
18
100
AcDbEntity
  8
PV0001_1
  6
Continuous
 48
0.5
370
    50
100
AcDbCircle
 10
-64.800003051757
 20
131.70001220703
 30
0.0
 40
0.8000000119209001
100
AcDbArc
 50
179.9999776881987
 51
270.0000280040004
  0
ARC
  5
179
330
18
100
AcDbEntity
  8
PV0001_1
  6
Continuous
 48
0.5
370
    50
100
AcDbCircle
 10
-63.0
 20
131.70001220703
 30
0.0
 40
0.8000000119209001
100
AcDbArc
 50
270.0000179860904
 51
0.0
  0
ARC
  5
17A
330
18
100
AcDbEntity
  8
PV0001_1
  6
Continuous
 48
0.5
370
    50
100
AcDbCircle
 10
-63.0
 20
133.5
 30
0.0
 40
0.8000000119209001
100
AcDbArc
 50
0.0
 51
89.99998201390965
  0
ARC
  5
17B
330
18
100
AcDbEntity
  8
PV0001_1
  6
Continuous
 48
0.5
370
    50
100
AcDbCircle
 10
-58.39999389648401
 20
134.10000610351
 30
0.0
 40
0.2000000029802
100
AcDbArc
 50
89.99998201390965
 51
179.9999640278191
  0
ARC
  5
17C
330
18
100
AcDbEntity
  8
PV0001_1
  6
Continuous
 48
0.5
370
    50
100
AcDbCircle
 10
-58.39999389648401
 20
131.10000610351
 30
0.0
 40
0.2000000029802
100
AcDbArc
 50
179.9999776881987
 51
270.0000280040004
  0
ARC
  5
17D
330
18
100
AcDbEntity
  8
PV0001_1
  6
Continuous
 48
0.5
370
    50
100
AcDbCircle
 10
-56.19999694824199
 20
131.70001220703
 30
0.0
 40
0.8000000119209001
100
AcDbArc
 50
270.0000179860904
 51
0.0
  0
ARC
  5
17E
330
18
100
AcDbEntity
  8
PV0001_1
  6
Continuous
 48
0.5
370
    50
100
AcDbCircle
 10
-56.19999694824199
 20
133.5
 30
0.0
 40
0.8000000119209001
100
AcDbArc
 50
0.0
 51
89.99998201390965
  0
ARC
  5
17F
330
18
100
AcDbEntity
  8
PV0001_1
  6
Continuous
 48
0.5
370
    50
100
AcDbCircle
 10
-55.199996948242
 20
131.50001525878
 30
0.0
 40
1.399999976158099
100
AcDbArc
 50
270.0000179860904
 51
0.0
  0
ARC
  5
180
330
18
100
AcDbEntity
  8
PV0001_1
  6
Continuous
 48
0.5
370
    50
100
AcDbCircle
 10
-55.199996948242
 20
133.5
 30
0.0
 40
1.399999976158099
100
AcDbArc
 50
0.0
 51
89.99998201390965
  0
ARC
  5
181
330
18
100
AcDbEntity
  8
PV0001_1
  6
Continuous
 48
0.5
370
    50
100
AcDbCircle
 10
-51.322509765625
 20
132.10000610351
 30
0.0
 40
0.2000000029802
100
AcDbArc
 50
161.5650375711494
 51
270.000000683247
  0
ARC
  5
182
330
18
100
AcDbEntity
  8
PV0001_1
  6
Continuous
 48
0.5
370
    50
100
AcDbCircle
 10
-49.07748413085901
 20
132.10000610351
 30
0.0
 40
0.2000000029802
100
AcDbArc
 50
270.0000179860904
 51
18.4348803528989
  0
ARC
  5
183
330
18
100
AcDbEntity
  8
PV0001_1
  6
Continuous
 48
0.5
370
    50
100
AcDbCircle
 10
-50.65585327148401
 20
134.10000610351
 30
0.0
 40
0.2000000029802
100
AcDbArc
 50
89.99998201390965
 51
161.5651331937947
  0
ARC
  5
184
330
18
100
AcDbEntity
  8
PV0001_1
  6
Continuous
 48
0.5
370
    50
100
AcDbCircle
 10
-49.744140625
 20
134.10000610351
 30
0.0
 40
0.2000000029802
100
AcDbArc
 50
18.43505281517194
 51
89.99998201390965
  0
ARC
  5
185
330
18
100
AcDbEntity
  8
PV0001_1
  6
Continuous
 48
0.5
370
    50
100
AcDbCircle
 10
-51.72250366210899
 20
130.90000915527
 30
0.0
 40
0.2000000029802
100
AcDbArc
 50
89.99998201390965
 51
161.5650102503904
  0
ARC
  5
186
330
18
100
AcDbEntity
  8
PV0001_1
  6
Continuous
 48
0.5
370
    50
100
AcDbCircle
 10
-48.677490234375
 20
130.90000915527
 30
0.0
 40
0.2000000029802
100
AcDbArc
 50
18.4348803528989
 51
89.99998201390965
  0
CIRCLE
  5
187
330
18
100
AcDbEntity
  8
PV0001_1
  6
Continuous
 48
0.5
370
   100
100
AcDbCircle
 10
149.39999389648
 20
132.49993896484
 30
0.0
 40
2.700000047683698
  0
CIRCLE
  5
188
330
18
100
AcDbEntity
  8
PV0001_1
  6
Continuous
 48
0.5
370
   100
100
AcDbCircle
 10
149.39999389648
 20
132.49993896484
 30
0.0
 40
1.620000123977699
  0
MTEXT
  5
1D6
330
18
100
AcDbEntity
  8
PV0001_1
 62
     7
370
    25
100
AcDbMText
 10
-40.17150610685285
 20
136.5
 30
0.0
 40
3.2
 41
0.0
 71
     4
 72
     5
  1
\T1.40;\W0.61;FILE　NAME
 73
     1
 44
1.0
1001
ACAD
1000
MTEXTBEGIN
1070
    73
1070
     1
1070
    44
1040
1.0
1070
    74
1070
     0
1000
MTEXTEND
  0
MTEXT
  5
1D7
330
18
100
AcDbEntity
  8
PV0001_1
 62
     7
370
    25
100
AcDbMText
 10
-24.45725607871948
 20
131.0
 30
0.0
 40
4.799999999999998
 41
0.0
 71
     4
 72
     5
  1
{\W0.61;\T1.4;FR4016PS}
 73
     1
 44
1.0
1001
ACAD
1000
ACAD_MTEXT_DEFINED_HEIGHT_BEGIN
1070
    46
1040
0.0
1000
ACAD_MTEXT_DEFINED_HEIGHT_END
1000
MTEXTBEGIN
1070
    73
1070
     1
1070
    44
1040
1.0
1070
    74
1070
     0
1000
MTEXTEND
  0
MTEXT
  5
1D8
330
18
100
AcDbEntity
  8
PV0001_1
 62
     7
370
    25
100
AcDbMText
 10
21.82849389314615
 20
136.5
 30
0.0
 40
3.2
 41
0.0
 71
     4
 72
     5
  1
\T1.40;\W0.61;MODEL
 73
     1
 44
1.0
1001
ACAD
1000
MTEXTBEGIN
1070
    73
1070
     1
1070
    44
1040
1.0
1070
    74
1070
     0
1000
MTEXTEND
  0
MTEXT
  5
1D9
330
18
100
AcDbEntity
  8
PV0001_1
 62
     7
370
    25
100
AcDbMText
 10
29.54274392127953
 20
131.0
 30
0.0
 40
4.799999999999998
 41
0.0
 71
     4
 72
     5
  1
{\W0.61;\T1.4;FR4016PS-DPNR}
 73
     1
 44
1.0
1001
ACAD
1000
ACAD_MTEXT_DEFINED_HEIGHT_BEGIN
1070
    46
1040
0.0
1000
ACAD_MTEXT_DEFINED_HEIGHT_END
1000
MTEXTBEGIN
1070
    73
1070
     1
1070
    44
1040
1.0
1070
    74
1070
     0
1000
MTEXTEND
  0
LINE
  5
783
330
18
100
AcDbEntity
  8
PV0001_1
 62
     7
100
AcDbLine
 10
-56.18711332536632
 20
-0.0082445144655026
 30
0.0
 11
48.73969438659528
 21
-0.0082445144655026
 31
0.0
  0
LINE
  5
90A
330
18
100
AcDbEntity
  8
PV0001_1
 62
     7
100
AcDbLine
 10
298.9999999999999
 20
53.99999999999988
 30
0.0
 11
298.9999999999999
 21
-54.00000000000011
 31
0.0
  0
LINE
  5
90C
330
18
100
AcDbEntity
  8
PV0001_1
 62
     7
100
AcDbLine
 10
281.0
 20
-54.0
 30
0.0
 11
281.0
 21
54.0
 31
0.0
  0
LINE
  5
90E
330
18
100
AcDbEntity
  8
PV0001_1
 62
     7
100
AcDbLine
 10
281.0
 20
54.0
 30
0.0
 11
298.9999999999999
 21
53.99999999999988
 31
0.0
  0
LINE
  5
910
330
18
100
AcDbEntity
  8
PV0001_1
 62
     7
100
AcDbLine
 10
281.0
 20
-54.0
 30
0.0
 11
298.9999999999999
 21
-54.00000000000011
 31
0.0
  0
LINE
  5
914
330
18
100
AcDbEntity
  8
PV0001_1
 62
     7
100
AcDbLine
 10
300.9213203435596
 20
-37.0
 30
0.0
 11
300.9213203435596
 21
37.0
 31
0.0
  0
LINE
  5
918
330
18
100
AcDbEntity
  8
PV0001_1
 62
     7
100
AcDbLine
 10
298.9999999999999
 20
36.79999999999996
 30
0.0
 11
300.9213203435596
 21
36.79999999999996
 31
0.0
  0
LINE
  5
919
330
18
100
AcDbEntity
  8
PV0001_1
 62
     7
100
AcDbLine
 10
298.9999999999999
 20
-36.80000000000007
 30
0.0
 11
300.9213203435596
 21
-36.80000000000007
 31
0.0
  0
LINE
  5
91C
330
18
100
AcDbEntity
  8
PV0001_1
 62
     7
100
AcDbLine
 10
343.0
 20
37.0
 30
0.0
 11
343.0
 21
-37.0
 31
0.0
  0
LINE
  5
91E
330
18
100
AcDbEntity
  8
PV0001_1
 62
     7
100
AcDbLine
 10
265.0
 20
37.0
 30
0.0
 11
265.0
 21
-37.0
 31
0.0
  0
LINE
  5
920
330
18
100
AcDbEntity
  8
PV0001_1
 62
     7
100
AcDbLine
 10
343.0
 20
-37.0
 30
0.0
 11
300.9213203435596
 21
-37.0
 31
0.0
  0
LINE
  5
921
330
18
100
AcDbEntity
  8
PV0001_1
 62
     7
100
AcDbLine
 10
343.0
 20
37.0
 30
0.0
 11
300.9213203435596
 21
37.0
 31
0.0
  0
LINE
  5
923
330
18
100
AcDbEntity
  8
PV0001_1
 62
     7
100
AcDbLine
 10
281.0
 20
-37.0
 30
0.0
 11
265.0
 21
-37.0
 31
0.0
  0
LINE
  5
925
330
18
100
AcDbEntity
  8
PV0001_1
 62
     7
100
AcDbLine
 10
281.0
 20
37.0
 30
0.0
 11
265.0
 21
37.0
 31
0.0
  0
CIRCLE
  5
926
330
18
100
AcDbEntity
  8
PV0001_1
 62
     7
100
AcDbCircle
 10
-42.98583221435543
 20
-0.0082445144655023
 30
0.0
 40
2.458499999999999
  0
CIRCLE
  5
927
330
18
100
AcDbEntity
  8
PV0001_1
 62
     7
100
AcDbCircle
 10
-42.98583221435543
 20
-0.0082445144655023
 30
0.0
 40
3.0
  0
CIRCLE
  5
928
330
18
100
AcDbEntity
  8
PV0001_1
 62
     7
100
AcDbCircle
 10
0.0141677856471176
 20
-45.0082445144655
 30
0.0
 40
4.5
  0
CIRCLE
  5
929
330
18
100
AcDbEntity
  8
PV0001_1
 62
     7
100
AcDbCircle
 10
0.0141677856445597
 20
-45.0082445144655
 30
0.0
 40
7.0
  0
CIRCLE
  5
92A
330
18
100
AcDbEntity
  8
PV0001_1
 62
     7
100
AcDbCircle
 10
-31.80563736774755
 20
31.81156063892917
 30
0.0
 40
4.5
  0
CIRCLE
  5
92B
330
18
100
AcDbEntity
  8
PV0001_1
 62
     7
100
AcDbCircle
 10
-31.80563736775005
 20
31.81156063892917
 30
0.0
 40
7.0
  0
CIRCLE
  5
92C
330
18
100
AcDbEntity
  8
PV0001_1
 62
     7
100
AcDbCircle
 10
31.83397293904179
 20
31.81156063892917
 30
0.0
 40
4.5
  0
CIRCLE
  5
92D
330
18
100
AcDbEntity
  8
PV0001_1
 62
     7
100
AcDbCircle
 10
31.83397293903923
 20
31.81156063892917
 30
0.0
 40
7.0
  0
CIRCLE
  5
92E
330
18
100
AcDbEntity
  8
PV0001_1
 62
     7
100
AcDbCircle
 10
0.0141677856471176
 20
44.99175548553449
 30
0.0
 40
4.5
  0
CIRCLE
  5
92F
330
18
100
AcDbEntity
  8
PV0001_1
 62
     7
100
AcDbCircle
 10
0.0141677856445597
 20
44.99175548553449
 30
0.0
 40
7.0
  0
CIRCLE
  5
930
330
18
100
AcDbEntity
  8
PV0001_1
 62
     7
100
AcDbCircle
 10
-31.80563736774755
 20
-31.82804966786017
 30
0.0
 40
4.5
  0
CIRCLE
  5
931
330
18
100
AcDbEntity
  8
PV0001_1
 62
     7
100
AcDbCircle
 10
-31.80563736775005
 20
-31.82804966786017
 30
0.0
 40
7.0
  0
CIRCLE
  5
932
330
18
100
AcDbEntity
  8
PV0001_1
 62
     7
100
AcDbCircle
 10
31.83397293904179
 20
-31.82804966786017
 30
0.0
 40
4.5
  0
CIRCLE
  5
933
330
18
100
AcDbEntity
  8
PV0001_1
 62
     7
100
AcDbCircle
 10
31.83397293903923
 20
-31.82804966786017
 30
0.0
 40
7.0
  0
LINE
  5
934
330
18
100
AcDbEntity
  8
PV0001_1
 62
     7
100
AcDbLine
 10
-52.48583221435544
 20
12.63098014529913
 30
0.0
 11
-52.48583221435544
 21
-12.64746917423002
 31
0.0
  0
ARC
  5
935
330
18
100
AcDbEntity
  8
PV0001_1
 62
     7
100
AcDbCircle
 10
0.0141677856445597
 20
-0.0082445144655026
 30
0.0
 40
53.99999999999999
100
AcDbArc
 50
40.60106073106926
 51
166.4637972626233
  0
ARC
  5
936
330
18
100
AcDbEntity
  8
PV0001_1
 62
     7
100
AcDbCircle
 10
0.0141677856445597
 20
-0.0082445144655026
 30
0.0
 40
54.00000000000002
100
AcDbArc
 50
193.5362027373766
 51
319.3989392689307
  0
LINE
  5
937
330
18
100
AcDbEntity
  8
PV0001_1
 62
     7
100
AcDbLine
 10
41.01416778564455
 20
-35.15081129607671
 30
0.0
 11
41.01416778564455
 21
35.13432226714571
 31
0.0
  0
LINE
  5
93E
330
18
100
AcDbEntity
  8
PV0001_1
  6
CENTER
 62
     7
 48
3.0
100
AcDbLine
 10
-41.26266313262843
 20
41.26858640380743
 30
0.0
 11
41.29099870391754
 21
-41.28507543273854
 31
0.0
  0
LINE
  5
93F
330
18
100
AcDbEntity
  8
PV0001_1
  6
CENTER
 62
     7
 48
3.0
100
AcDbLine
 10
-41.26266313262843
 20
-41.28507543273843
 30
0.0
 11
41.29099870391754
 21
41.26858640380743
 31
0.0
  0
LINE
  5
940
330
18
100
AcDbEntity
  8
PV0001_1
  6
CENTER
 62
     7
 48
3.0
100
AcDbLine
 10
0.0141677856445597
 20
58.36600958193725
 30
0.0
 11
0.0141677856445597
 21
-58.38249861086826
 31
0.0
  0
LINE
  5
941
330
18
100
AcDbEntity
  8
PV0001_1
 62
     7
100
AcDbLine
 10
-56.18711332536626
 20
-0.0082445144655026
 30
0.0
 11
48.73969438659536
 21
-0.0082445144655026
 31
0.0
  0
CIRCLE
  5
942
330
18
100
AcDbEntity
  8
PV0001_1
  6
CENTER
 62
     7
 48
3.0
100
AcDbCircle
 10
0.0141677856445597
 20
-0.0082445144655026
 30
0.0
 40
45.0
  0
CIRCLE
  5
943
330
18
100
AcDbEntity
  8
PV0001_1
 62
     7
100
AcDbCircle
 10
0.0141677856445597
 20
-0.0082445144655026
 30
0.0
 40
37.0
  0
CIRCLE
  5
944
330
18
100
AcDbEntity
  8
PV0001_1
 62
     7
100
AcDbCircle
 10
0.0141677856445597
 20
-0.0082445144655026
 30
0.0
 40
20.0
  0
LINE
  5
951
330
18
100
AcDbEntity
  8
PV0001_1
  6
CENTER
 62
     7
 48
2.0
100
AcDbLine
 10
-42.98583221435543
 20
7.267046981765644
 30
0.0
 11
-42.98583221435543
 21
-7.28353601069665
 31
0.0
  0
LINE
  5
952
330
18
100
AcDbEntity
  8
PV0001_1
  6
DASHED2
 62
     7
 48
0.3
100
AcDbLine
 10
281.0
 20
3.0
 30
0.0
 11
287.0
 21
3.0
 31
0.0
  0
LINE
  5
953
330
18
100
AcDbEntity
  8
PV0001_1
  6
DASHED2
 62
     7
 48
0.3
100
AcDbLine
 10
287.0
 20
3.0
 30
0.0
 11
287.0
 21
-3.0
 31
0.0
  0
LINE
  5
954
330
18
100
AcDbEntity
  8
PV0001_1
  6
DASHED2
 62
     7
 48
0.3
100
AcDbLine
 10
287.0
 20
-3.0
 30
0.0
 11
281.0
 21
-3.0
 31
0.0
  0
CIRCLE
  5
955
330
18
100
AcDbEntity
  8
PV0001_1
  6
DASHED2
 62
     7
 48
0.3
100
AcDbCircle
 10
294.0
 20
0.0
 30
0.0
 40
1.5
  0
CIRCLE
  5
956
330
18
100
AcDbEntity
  8
PV0001_1
  6
DASHED2
 62
     7
 48
0.3
100
AcDbCircle
 10
294.0
 20
0.0
 30
0.0
 40
1.199999999999999
  0
CIRCLE
  5
957
330
18
100
AcDbEntity
  8
PV0001_1
  6
DASHED2
 62
     7
 48
0.3
100
AcDbCircle
 10
294.0
 20
0.0
 30
0.0
 40
1.7
  0
LINE
  5
958
330
18
100
AcDbEntity
  8
PV0001_1
 62
     7
 48
0.1
100
AcDbLine
 10
294.0
 20
-4.946611716045025
 30
0.0
 11
294.0
 21
4.946611716045025
 31
0.0
  0
LINE
  5
959
330
18
100
AcDbEntity
  8
PV0001_1
  6
DASHED2
 62
     7
 48
0.3
100
AcDbLine
 10
281.0
 20
2.5
 30
0.0
 11
294.0
 21
2.5
 31
0.0
  0
LINE
  5
95A
330
18
100
AcDbEntity
  8
PV0001_1
  6
DASHED2
 62
     7
 48
0.2
100
AcDbLine
 10
294.0
 20
2.5
 30
0.0
 11
294.0
 21
1.5
 31
0.0
  0
LINE
  5
95B
330
18
100
AcDbEntity
  8
PV0001_1
  6
DASHED2
 62
     7
 48
0.3
100
AcDbLine
 10
281.0
 20
-2.5
 30
0.0
 11
294.0
 21
-2.5
 31
0.0
  0
LINE
  5
95C
330
18
100
AcDbEntity
  8
PV0001_1
  6
DASHED2
 62
     7
 48
0.2
100
AcDbLine
 10
294.0
 20
-2.5
 30
0.0
 11
294.0
 21
-1.5
 31
0.0
  0
LINE
  5
95D
330
18
100
AcDbEntity
  8
PV0001_1
  6
DASHED2
 62
     7
 48
0.2
100
AcDbLine
 10
294.0
 20
2.5
 30
0.0
 11
294.5064458236404
 21
1.622810102173729
 31
0.0
  0
LINE
  5
95E
330
18
100
AcDbEntity
  8
PV0001_1
  6
DASHED2
 62
     7
 48
0.2
100
AcDbLine
 10
294.0
 20
-2.5
 30
0.0
 11
294.5064458236404
 21
-1.622810102173729
 31
0.0
  0
LINE
  5
95F
330
18
100
AcDbEntity
  8
PV0001_1
  6
DASHED2
 62
     7
 48
0.3
100
AcDbLine
 10
-52.48583221435544
 20
1.691755485534541
 30
0.0
 11
-50.48583221435544
 21
1.691755485534541
 31
0.0
  0
LINE
  5
960
330
18
100
AcDbEntity
  8
PV0001_1
  6
DASHED2
 62
     7
 48
0.3
100
AcDbLine
 10
-50.48583221435544
 20
1.691755485534541
 30
0.0
 11
-50.48583221435544
 21
-1.708244514465548
 31
0.0
  0
LINE
  5
961
330
18
100
AcDbEntity
  8
PV0001_1
  6
DASHED2
 62
     7
 48
0.3
100
AcDbLine
 10
-50.48583221435544
 20
-1.708244514465548
 30
0.0
 11
-52.48583221435544
 21
-1.708244514465548
 31
0.0
  0
LINE
  5
962
330
18
100
AcDbEntity
  8
PV0001_1
  6
DASHED2
 62
     7
 48
0.3
100
AcDbLine
 10
-50.48583221435544
 20
1.491755485534496
 30
0.0
 11
-45.48583221435544
 21
1.491755485534496
 31
0.0
  0
LINE
  5
963
330
18
100
AcDbEntity
  8
PV0001_1
  6
DASHED2
 62
     7
 48
0.1
100
AcDbLine
 10
-45.48583221435544
 20
1.491755485534496
 30
0.0
 11
-45.48583221435544
 21
-1.508244514465501
 31
0.0
  0
LINE
  5
964
330
18
100
AcDbEntity
  8
PV0001_1
  6
DASHED2
 62
     7
 48
0.3
100
AcDbLine
 10
-45.48583221435544
 20
-1.508244514465501
 30
0.0
 11
-50.48583221435544
 21
-1.508244514465501
 31
0.0
  0
LINE
  5
965
330
18
100
AcDbEntity
  8
PV0001_1
  6
DASHED2
 62
     7
 48
0.3
100
AcDbLine
 10
-50.48583221435544
 20
-1.208244514465547
 30
0.0
 11
-21.70270353598008
 21
-1.208244514465547
 31
0.0
  0
LINE
  5
966
330
18
100
AcDbEntity
  8
PV0001_1
  6
DASHED2
 62
     7
 48
0.3
100
AcDbLine
 10
-21.70270353598008
 20
1.191755485534542
 30
0.0
 11
-50.48583221435544
 21
1.191755485534542
 31
0.0
  0
ENDSEC
  0
SECTION
  2
OBJECTS
  0
DICTIONARY
  5
C
330
0
100
AcDbDictionary
281
     1
  3
ACAD_COLOR
350
215
  3
ACAD_GROUP
350
D
  3
ACAD_LAYOUT
350
5E
  3
ACAD_MATERIAL
350
214
  3
ACAD_MLINESTYLE
350
1B
  3
ACAD_PLOTSETTINGS
350
5F
  3
ACAD_PLOTSTYLENAME
350
5C
  3
ACAD_TABLESTYLE
350
216
  3
ACDBHEADERROUNDTRIPXREC
350
CDE
  3
AcDbVariableDictionary
350
325
  3
AcmDictionary
350
279
  3
AMG
350
21D
  3
AMGSNAPSETTINGS
350
31E
  3
SAKAE_DICT
350
1DE
  0
DICTIONARY
  5
20D
330
18
100
AcDbDictionary
280
     1
281
     1
  3
ACAD_LAYOUTSELFREF
360
20E
  0
DICTIONARY
  5
20B
330
15
100
AcDbDictionary
280
     1
281
     1
  3
ACAD_LAYOUTSELFREF
360
20C
  0
DICTIONARY
  5
215
102
{ACAD_REACTORS
330
C
102
}
330
C
100
AcDbDictionary
281
     1
  0
DICTIONARY
  5
D
102
{ACAD_REACTORS
330
C
102
}
330
C
100
AcDbDictionary
281
     1
  0
DICTIONARY
  5
5E
102
{ACAD_REACTORS
330
C
102
}
330
C
100
AcDbDictionary
281
     1
  3
Model
350
60
  3
ﾚｲｱｳﾄ1
350
61
  0
DICTIONARY
  5
214
102
{ACAD_REACTORS
330
C
102
}
330
C
100
AcDbDictionary
281
     1
  0
DICTIONARY
  5
1B
102
{ACAD_REACTORS
330
C
102
}
330
C
100
AcDbDictionary
281
     1
  3
STANDARD
350
1C
  0
DICTIONARY
  5
5F
102
{ACAD_REACTORS
330
C
102
}
330
C
100
AcDbDictionary
281
     1
  0
ACDBDICTIONARYWDFLT
  5
5C
102
{ACAD_REACTORS
330
C
102
}
330
C
100
AcDbDictionary
281
     1
  3
Normal
350
5D
100
AcDbDictionaryWithDefault
340
5D
1001
ACAD
1000
TREAT_AS_HARD
1070
     0
  0
DICTIONARY
  5
216
102
{ACAD_REACTORS
330
C
102
}
330
C
100
AcDbDictionary
281
     1
  3
Standard
350
217
  0
DICTIONARY
  5
CDE
102
{ACAD_REACTORS
330
C
102
}
330
C
100
AcDbDictionary
281
     1
  0
DICTIONARY
  5
325
102
{ACAD_REACTORS
330
C
102
}
330
C
100
AcDbDictionary
281
     1
  3
CTABLESTYLE
350
326
  3
DIMASSOC
350
A17
  3
PROJECTNAME
350
A18
  0
DICTIONARY
  5
279
102
{ACAD_REACTORS
330
C
102
}
330
C
100
AcDbDictionary
281
     1
  3
AcmStdDictionary
350
27A
  3
AMDTSECTSYM_ARROWCOLOR
350
A09
  0
DICTIONARY
  5
21D
102
{ACAD_REACTORS
330
C
102
}
330
C
100
AcDbDictionary
281
     1
  0
DICTIONARY
  5
31E
102
{ACAD_REACTORS
330
C
102
}
330
C
100
AcDbDictionary
281
     1
  0
DICTIONARY
  5
1DE
102
{ACAD_REACTORS
330
C
102
}
330
C
100
AcDbDictionary
281
     1
  3
XREC1
350
1DF
  0
XRECORD
  5
20E
102
{ACAD_REACTORS
330
20D
102
}
330
20D
100
AcDbXrecord
280
     1
340
18
  0
XRECORD
  5
20C
102
{ACAD_REACTORS
330
20B
102
}
330
20B
100
AcDbXrecord
280
     1
340
15
  0
LAYOUT
  5
60
102
{ACAD_XDICTIONARY
360
CDF
102
}
102
{ACAD_REACTORS
330
5E
102
}
330
5E
100
AcDbPlotSettings
  1

  2
DocuWide3030.pc3
  4
A4_(297.00_x_210.00_mm)
  6

 40
0.7937499880790711
 41
0.7937499880790711
 42
0.79376220703125
 43
0.7937469482421875
 44
297.0
 45
210.0
 46
0.0
 47
34.97913842830563
 48
0.0
 49
0.0
140
0.0
141
0.0
142
1.0
143
2.000855291687035
 70
 11956
 72
     1
 73
     0
 74
     1
  7
kuroda-monochrome.ctb
 75
     0
147
0.4997862684796374
148
90.04092309154
149
138.5027140946511
100
AcDbLayout
  1
Model
 70
     1
 71
     0
 10
0.0
 20
0.0
 11
12.0
 21
9.0
 12
0.0
 22
0.0
 32
0.0
 14
0.0
 24
0.0
 34
0.0
 15
0.0
 25
0.0
 35
0.0
146
0.0
 13
0.0
 23
0.0
 33
0.0
 16
1.0
 26
0.0
 36
0.0
 17
0.0
 27
1.0
 37
0.0
 76
     0
330
18
1001
ACAD_PSEXT
1000
DocuWide3030.pc3
1000
DocuWide3030
1000
IP_192.30.81.105
1000

1070
     0
  0
LAYOUT
  5
61
102
{ACAD_XDICTIONARY
360
CE1
102
}
102
{ACAD_REACTORS
330
5E
102
}
330
5E
100
AcDbPlotSettings
  1

  2
\\BLUEWAVE2\EPSON LP-9200SX
  4

  6

 40
0.0
 41
0.0
 42
0.0
 43
0.0
 44
0.0
 45
0.0
 46
0.0
 47
0.0
 48
0.0
 49
0.0
140
0.0
141
0.0
142
1.0
143
1.0
 70
   688
 72
     0
 73
     0
 74
     5
  7
kuroda-monochrome.ctb
 75
    16
147
1.0
148
0.0
149
0.0
100
AcDbLayout
  1
ﾚｲｱｳﾄ1
 70
     1
 71
     1
 10
0.0
 20
0.0
 11
420.0
 21
297.0
 12
0.0
 22
0.0
 32
0.0
 14
1.000000000000000E+20
 24
1.000000000000000E+20
 34
1.000000000000000E+20
 15
-1.000000000000000E+20
 25
-1.000000000000000E+20
 35
-1.000000000000000E+20
146
0.0
 13
0.0
 23
0.0
 33
0.0
 16
1.0
 26
0.0
 36
0.0
 17
0.0
 27
1.0
 37
0.0
 76
     0
330
15
  0
MLINESTYLE
  5
1C
102
{ACAD_REACTORS
330
1B
102
}
330
1B
100
AcDbMlineStyle
  2
STANDARD
 70
     0
  3

 62
   256
 51
90.0
 52
90.0
 71
     2
 49
0.5
 62
   256
  6
BYLAYER
 49
-0.5
 62
   256
  6
BYLAYER
  0
ACDBPLACEHOLDER
  5
5D
102
{ACAD_REACTORS
330
5C
102
}
330
5C
  0
TABLESTYLE
  5
217
102
{ACAD_REACTORS
330
216
102
}
330
216
100
AcDbTableStyle
  3
Standard
 70
     0
 71
     0
 40
1.5
 41
1.5
280
     0
281
     0
  7
STANDARD
140
4.5
170
     2
 62
     0
 63
     7
283
     0
274
    -2
284
     1
 64
     0
275
    -2
285
     1
 65
     0
276
    -2
286
     1
 66
     0
277
    -2
287
     1
 67
     0
278
    -2
288
     1
 68
     0
279
    -2
289
     1
 69
     0
  7
STANDARD
140
6.0
170
     5
 62
     0
 63
     7
283
     0
274
    -2
284
     1
 64
     0
275
    -2
285
     1
 65
     0
276
    -2
286
     1
 66
     0
277
    -2
287
     1
 67
     0
278
    -2
288
     1
 68
     0
279
    -2
289
     1
 69
     0
  7
STANDARD
140
4.5
170
     5
 62
     0
 63
     7
283
     0
274
    -2
284
     1
 64
     0
275
    -2
285
     1
 65
     0
276
    -2
286
     1
 66
     0
277
    -2
287
     1
 67
     0
278
    -2
288
     1
 68
     0
279
    -2
289
     1
 69
     0
  0
DICTIONARYVAR
  5
326
102
{ACAD_REACTORS
330
325
102
}
330
325
100
DictionaryVariables
280
     0
  1
STANDARD
  0
DICTIONARYVAR
  5
A17
102
{ACAD_REACTORS
330
325
102
}
330
325
100
DictionaryVariables
280
     0
  1
1
  0
DICTIONARYVAR
  5
A18
102
{ACAD_REACTORS
330
325
102
}
330
325
100
DictionaryVariables
280
     0
  1

  0
DICTIONARY
  5
27A
102
{ACAD_REACTORS
330
279
102
}
330
279
100
AcDbDictionary
281
     1
  0
XRECORD
  5
A09
102
{ACAD_REACTORS
330
279
102
}
330
279
100
AcDbXrecord
280
     1
 90
-1023410169
  0
XRECORD
  5
1DF
102
{ACAD_REACTORS
330
1DE
102
}
330
1DE
100
AcDbXrecord
280
     1
  1
PV
 40
1.0
 50
0.0
 51
0.0
 52
0.0
 53
0.0
  0
DICTIONARY
  5
CDF
330
60
100
AcDbDictionary
280
     1
281
     1
  3
ACAD_XREC_ROUNDTRIP
360
CE0
  0
DICTIONARY
  5
CE1
330
61
100
AcDbDictionary
280
     1
281
     1
  3
ACAD_XREC_ROUNDTRIP
360
CE2
  0
XRECORD
  5
CE0
102
{ACAD_REACTORS
330
CDF
102
}
330
CDF
100
AcDbXrecord
280
     1
102
SHADEPLOT
 70
     0
102
SHADEPLOTRESLEVEL
 70
     2
102
SHADEPLOTCUSTOMDPI
 70
   300
  0
XRECORD
  5
CE2
102
{ACAD_REACTORS
330
CE1
102
}
330
CE1
100
AcDbXrecord
280
     1
102
SHADEPLOT
 70
     0
102
SHADEPLOTRESLEVEL
 70
     2
102
SHADEPLOTCUSTOMDPI
 70
   300
  0
ENDSEC
  0
EOF
