  0
SECTION
  2
HEADER
  9
$ACADVER
  1
AC1015
  9
$ACADMAINTVER
 70
    20
  9
$DWGCODEPAGE
  3
ANSI_932
  9
$INSBASE
 10
0.0
 20
0.0
 30
0.0
  9
$EXTMIN
 10
-90.01803451266368
 20
-138.5084527242096
 30
-0.0015258207003583
  9
$EXTMAX
 10
501.0180372647218
 20
138.5084540140913
 30
0.0000000349246037
  9
$LIMMIN
 10
0.0
 20
0.0
  9
$LIMMAX
 10
0.0
 20
0.0
  9
$ORTHOMODE
 70
     0
  9
$REGENMODE
 70
     1
  9
$FILLMODE
 70
     1
  9
$QTEXTMODE
 70
     0
  9
$MIRRTEXT
 70
     1
  9
$LTSCALE
 40
1.0
  9
$ATTMODE
 70
     1
  9
$TEXTSIZE
 40
2.5
  9
$TRACEWID
 40
1.0
  9
$TEXTSTYLE
  7
CONVERT
  9
$CLAYER
  8
0
  9
$CELTYPE
  6
BYLAYER
  9
$CECOLOR
 62
   256
  9
$CELTSCALE
 40
1.0
  9
$DISPSILH
 70
     0
  9
$DIMSCALE
 40
1.0
  9
$DIMASZ
 40
3.0
  9
$DIMEXO
 40
1.0
  9
$DIMDLI
 40
7.0
  9
$DIMRND
 40
0.0
  9
$DIMDLE
 40
0.0
  9
$DIMEXE
 40
2.0
  9
$DIMTP
 40
0.0
  9
$DIMTM
 40
0.0
  9
$DIMTXT
 40
2.799999999999998
  9
$DIMCEN
 40
0.0
  9
$DIMTSZ
 40
0.0
  9
$DIMTOL
 70
     0
  9
$DIMLIM
 70
     0
  9
$DIMTIH
 70
     0
  9
$DIMTOH
 70
     0
  9
$DIMSE1
 70
     0
  9
$DIMSE2
 70
     0
  9
$DIMTAD
 70
     1
  9
$DIMZIN
 70
     0
  9
$DIMBLK
  1

  9
$DIMASO
 70
     1
  9
$DIMSHO
 70
     1
  9
$DIMPOST
  1

  9
$DIMAPOST
  1

  9
$DIMALT
 70
     0
  9
$DIMALTD
 70
     4
  9
$DIMALTF
 40
0.0394
  9
$DIMLFAC
 40
1.0
  9
$DIMTOFL
 70
     1
  9
$DIMTVP
 40
0.0
  9
$DIMTIX
 70
     0
  9
$DIMSOXD
 70
     0
  9
$DIMSAH
 70
     1
  9
$DIMBLK1
  1
Open30
  9
$DIMBLK2
  1
Open30
  9
$DIMSTYLE
  2
STANDARD
  9
$DIMCLRD
 70
    44
  9
$DIMCLRE
 70
    44
  9
$DIMCLRT
 70
    44
  9
$DIMTFAC
 40
1.0
  9
$DIMGAP
 40
0.7
  9
$DIMJUST
 70
     0
  9
$DIMSD1
 70
     0
  9
$DIMSD2
 70
     0
  9
$DIMTOLJ
 70
     1
  9
$DIMTZIN
 70
     0
  9
$DIMALTZ
 70
     0
  9
$DIMALTTZ
 70
     0
  9
$DIMUPT
 70
     0
  9
$DIMDEC
 70
     3
  9
$DIMTDEC
 70
     3
  9
$DIMALTU
 70
     8
  9
$DIMALTTD
 70
     4
  9
$DIMTXSTY
  7
STANDARD
  9
$DIMAUNIT
 70
     0
  9
$DIMADEC
 70
     0
  9
$DIMALTRND
 40
0.0
  9
$DIMAZIN
 70
     0
  9
$DIMDSEP
 70
    46
  9
$DIMATFIT
 70
     0
  9
$DIMFRAC
 70
     0
  9
$DIMLDRBLK
  1
Open30
  9
$DIMLUNIT
 70
     2
  9
$DIMLWD
 70
    -2
  9
$DIMLWE
 70
    -2
  9
$DIMTMOVE
 70
     0
  9
$LUNITS
 70
     2
  9
$LUPREC
 70
     4
  9
$SKETCHINC
 40
1.0
  9
$FILLETRAD
 40
10.0
  9
$AUNITS
 70
     0
  9
$AUPREC
 70
     0
  9
$MENU
  1
.
  9
$ELEVATION
 40
0.0
  9
$PELEVATION
 40
0.0
  9
$THICKNESS
 40
0.0
  9
$LIMCHECK
 70
     0
  9
$CHAMFERA
 40
10.0
  9
$CHAMFERB
 40
10.0
  9
$CHAMFERC
 40
20.0
  9
$CHAMFERD
 40
0.0
  9
$SKPOLY
 70
     0
  9
$TDCREATE
 40
2451067.751276933
  9
$TDUCREATE
 40
2451067.376276933
  9
$TDUPDATE
 40
2454208.451504248
  9
$TDUUPDATE
 40
2454208.076504248
  9
$TDINDWG
 40
0.0187618981
  9
$TDUSRTIMER
 40
0.0187617130
  9
$USRTIMER
 70
     1
  9
$ANGBASE
 50
0.0
  9
$ANGDIR
 70
     0
  9
$PDMODE
 70
     1
  9
$PDSIZE
 40
0.0
  9
$PLINEWID
 40
0.0
  9
$SPLFRAME
 70
     0
  9
$SPLINETYPE
 70
     6
  9
$SPLINESEGS
 70
     8
  9
$HANDSEED
  5
9F0
  9
$SURFTAB1
 70
     6
  9
$SURFTAB2
 70
     6
  9
$SURFTYPE
 70
     6
  9
$SURFU
 70
     6
  9
$SURFV
 70
     6
  9
$UCSBASE
  2

  9
$UCSNAME
  2

  9
$UCSORG
 10
0.0
 20
0.0
 30
0.0
  9
$UCSXDIR
 10
1.0
 20
0.0
 30
0.0
  9
$UCSYDIR
 10
0.0
 20
1.0
 30
0.0
  9
$UCSORTHOREF
  2

  9
$UCSORTHOVIEW
 70
     0
  9
$UCSORGTOP
 10
0.0
 20
0.0
 30
0.0
  9
$UCSORGBOTTOM
 10
0.0
 20
0.0
 30
0.0
  9
$UCSORGLEFT
 10
0.0
 20
0.0
 30
0.0
  9
$UCSORGRIGHT
 10
0.0
 20
0.0
 30
0.0
  9
$UCSORGFRONT
 10
0.0
 20
0.0
 30
0.0
  9
$UCSORGBACK
 10
0.0
 20
0.0
 30
0.0
  9
$PUCSBASE
  2

  9
$PUCSNAME
  2

  9
$PUCSORG
 10
0.0
 20
0.0
 30
0.0
  9
$PUCSXDIR
 10
1.0
 20
0.0
 30
0.0
  9
$PUCSYDIR
 10
0.0
 20
1.0
 30
0.0
  9
$PUCSORTHOREF
  2

  9
$PUCSORTHOVIEW
 70
     0
  9
$PUCSORGTOP
 10
0.0
 20
0.0
 30
0.0
  9
$PUCSORGBOTTOM
 10
0.0
 20
0.0
 30
0.0
  9
$PUCSORGLEFT
 10
0.0
 20
0.0
 30
0.0
  9
$PUCSORGRIGHT
 10
0.0
 20
0.0
 30
0.0
  9
$PUCSORGFRONT
 10
0.0
 20
0.0
 30
0.0
  9
$PUCSORGBACK
 10
0.0
 20
0.0
 30
0.0
  9
$USERI1
 70
     0
  9
$USERI2
 70
     0
  9
$USERI3
 70
     0
  9
$USERI4
 70
     0
  9
$USERI5
 70
     0
  9
$USERR1
 40
0.0
  9
$USERR2
 40
0.0
  9
$USERR3
 40
0.0
  9
$USERR4
 40
0.0
  9
$USERR5
 40
0.0
  9
$WORLDVIEW
 70
     1
  9
$SHADEDGE
 70
     3
  9
$SHADEDIF
 70
    70
  9
$TILEMODE
 70
     1
  9
$MAXACTVP
 70
    48
  9
$PINSBASE
 10
0.0
 20
0.0
 30
0.0
  9
$PLIMCHECK
 70
     0
  9
$PEXTMIN
 10
1.000000000000000E+20
 20
1.000000000000000E+20
 30
1.000000000000000E+20
  9
$PEXTMAX
 10
-1.000000000000000E+20
 20
-1.000000000000000E+20
 30
-1.000000000000000E+20
  9
$PLIMMIN
 10
0.0
 20
0.0
  9
$PLIMMAX
 10
420.0
 20
297.0
  9
$UNITMODE
 70
     0
  9
$VISRETAIN
 70
     1
  9
$PLINEGEN
 70
     0
  9
$PSLTSCALE
 70
     1
  9
$TREEDEPTH
 70
  3020
  9
$CMLSTYLE
  2
STANDARD
  9
$CMLJUST
 70
     0
  9
$CMLSCALE
 40
20.0
  9
$PROXYGRAPHICS
 70
     1
  9
$MEASUREMENT
 70
     1
  9
$CELWEIGHT
370
    -1
  9
$ENDCAPS
280
     0
  9
$JOINSTYLE
280
     0
  9
$LWDISPLAY
290
     0
  9
$INSUNITS
 70
     0
  9
$HYPERLINKBASE
  1

  9
$STYLESHEET
  1
KURODA-MONOCHROME.CTB
  9
$XEDIT
290
     1
  9
$CEPSNTYPE
380
     0
  9
$PSTYLEMODE
290
     1
  9
$FINGERPRINTGUID
  2
{881B1582-4BC7-11D3-AB9D-00805F8B7187}
  9
$VERSIONGUID
  2
{2B1F7879-4592-4905-B4AF-08A58286F6D9}
  9
$EXTNAMES
290
     1
  9
$PSVPSCALE
 40
0.0
  9
$OLESTARTUP
290
     0
  0
ENDSEC
  0
SECTION
  2
CLASSES
  0
CLASS
  1
ACDBDICTIONARYWDFLT
  2
AcDbDictionaryWithDefault
  3
ObjectDBX Classes
 90
        0
280
     0
281
     0
  0
CLASS
  1
ACDBPLACEHOLDER
  2
AcDbPlaceHolder
  3
ObjectDBX Classes
 90
        0
280
     0
281
     0
  0
CLASS
  1
LAYOUT
  2
AcDbLayout
  3
ObjectDBX Classes
 90
        0
280
     0
281
     0
  0
CLASS
  1
TABLESTYLE
  2
AcDbTableStyle
  3
ObjectDBX Classes
 90
     2047
280
     0
281
     0
  0
CLASS
  1
ACME_DOCUMENT
  2
AcMeDbDoc
  3
AcMeServices
 90
        0
280
     0
281
     0
  0
CLASS
  1
AMGSETTINGSOBJ
  2
AmgSettingsObj
  3
"AcadM|Product Description: AutoCAD Mechanical 2000|Company: Autodesk"
 90
        0
280
     0
281
     0
  0
CLASS
  1
AMGOBJPROPCFG
  2
AmgObjPropCfg
  3
"AmgLay|Product Description: AutoCAD Mechanical 2000|Company: Autodesk"
 90
        1
280
     0
281
     0
  0
CLASS
  1
ACMESCOPE
  2
AcMeScope
  3
AcMeServices
 90
        0
280
     0
281
     0
  0
CLASS
  1
ACGREFMASTER
  2
AcGrefMaster
  3
AcAttribServices
 90
        0
280
     0
281
     0
  0
CLASS
  1
ACMECOMMANDHISTORY
  2
AcMeCommandHistory
  3
AcMeServices
 90
        0
280
     0
281
     0
  0
CLASS
  1
ACIMSYSVARMAN
  2
AcImSysVarManager
  3
AcMeServices
 90
        0
280
     0
281
     0
  0
CLASS
  1
ACIMINTSYSVAR
  2
AcImIntSysVar
  3
AcMeServices
 90
        0
280
     0
281
     0
  0
CLASS
  1
ACMEDRAWINGMAN
  2
AcMeDrawingMan
  3
AcMeServices
 90
        0
280
     0
281
     0
  0
CLASS
  1
ACMEVIEW
  2
AcMeView
  3
AcMeServices
 90
        0
280
     0
281
     0
  0
CLASS
  1
ACDBENTITYCACHE
  2
AcMeEntityCache
  3
AcMeServices
 90
        0
280
     0
281
     0
  0
CLASS
  1
GSMANAGER
  2
AcMeGSManager
  3
AcMeServices
 90
        0
280
     0
281
     0
  0
CLASS
  1
AMDTINTERNALREACTOR
  2
AmdtInternalReactor
  3
AcMeServices
 90
        0
280
     0
281
     0
  0
CLASS
  1
ACMESTATEMGR
  2
AcMeStateMgr
  3
AcMeServices
 90
        0
280
     0
281
     0
  0
CLASS
  1
AM_DRAWING_MGR
  2
AcDmDwgMgr
  3
AcMechDwgViewMgmt
 90
        0
280
     0
281
     0
  0
CLASS
  1
AM_DWG_DOCUMENT
  2
AcDmDwgDocument
  3
AcMechDwgViewMgmt
 90
        0
280
     0
281
     0
  0
CLASS
  1
AM_DWG_SHEET
  2
AcDmSheet
  3
AcMechDwgViewMgmt
 90
        0
280
     0
281
     0
  0
CLASS
  1
AM_VIEWDIMPARMAP
  2
AcDmViewDimParMap
  3
AcMechDwgViewMgmt
 90
        0
280
     0
281
     0
  0
CLASS
  1
ACIMREALSYSVAR
  2
AcImRealSysVar
  3
AcMeServices
 90
        0
280
     0
281
     0
  0
CLASS
  1
AM_DWGMGR_NAME
  2
AcDmDwgMgrName
  3
AcMechDwgViewMgmt
 90
        0
280
     0
281
     0
  0
CLASS
  1
ACME_DATABASE
  2
AcMeDbDatabase
  3
AcMeServices
 90
        0
280
     0
281
     0
  0
CLASS
  1
ACRFINSADJUSTERMGR
  2
AcRfInsAdjusterMgr
  3
AcMeServices
 90
        0
280
     0
281
     0
  0
CLASS
  1
ACGREFACADMASTER
  2
AcGrefacadMaster
  3
AcGrefServices
 90
        0
280
     0
281
     0
  0
CLASS
  1
AMDTMENUSTATEMGR
  2
AmdtMenuStateMgr
  3
McadcomServices
 90
        0
280
     0
281
     0
  0
CLASS
  1
AMDTMCOMMENUSTATE
  2
AmdtMcomMenuState
  3
McadcomServices
 90
        0
280
     0
281
     0
  0
CLASS
  1
AMIMASTER
  2
AmiMaster
  3
AmiServices
 90
        0
280
     0
281
     0
  0
CLASS
  1
MAPIAMMOUDLE
  2
MApiAmModule
  3
MApiAmServices
 90
        0
280
     0
281
     0
  0
CLASS
  1
ACMSTANDARDANSI
  2
AcmStandardANSI
  3
"Amdt_StdImp|Product Description: AutoCAD Mechanical 2004 DX|Company: Autodesk"
 90
        0
280
     0
281
     0
  0
CLASS
  1
ACMSURFSTANDARDANSI
  2
AcmSurfTextStdANSI
  3
"Amdt_StdImp|Product Description: AutoCAD Mechanical 2004 DX|Company: Autodesk"
 90
        0
280
     0
281
     0
  0
CLASS
  1
ACMFCFSTANDARDANSI
  2
AcmFCFStdANSI
  3
"Amdt_StdImp|Product Description: AutoCAD Mechanical 2004 DX|Company: Autodesk"
 90
        0
280
     0
281
     0
  0
CLASS
  1
ACMWELDSTANDARDANSI
  2
AcmWeldingStdANSI
  3
"Amdt_StdImp|Product Description: AutoCAD Mechanical 2004 DX|Company: Autodesk"
 90
        0
280
     0
281
     0
  0
CLASS
  1
ACMIDSTANDARDANSI
  2
AcmIdStdANSI
  3
"Amdt_StdImp|Product Description: AutoCAD Mechanical 2004 DX|Company: Autodesk"
 90
        0
280
     0
281
     0
  0
CLASS
  1
ACMDATUMSTANDARDANSI
  2
AcmDatumStdANSI
  3
"Amdt_StdImp|Product Description: AutoCAD Mechanical 2004 DX|Company: Autodesk"
 90
        0
280
     0
281
     0
  0
CLASS
  1
ACMBOMSTANDARDANSI
  2
AcmBOMStdANSI
  3
"Amdt_StdImp|Product Description: AutoCAD Mechanical 2004 DX|Company: Autodesk"
 90
        0
280
     0
281
     0
  0
CLASS
  1
ACMDETAILSTANDARDANSI
  2
AmdtDetailSymStdANSI
  3
"Amdt_StdImp|Product Description: AutoCAD Mechanical 2004 DX|Company: Autodesk"
 90
        0
280
     0
281
     0
  0
CLASS
  1
ACMSECTIONSTANDARDANSI
  2
AmdtSectionSymStdANSI
  3
"Amdt_StdImp|Product Description: AutoCAD Mechanical 2004 DX|Company: Autodesk"
 90
        0
280
     0
281
     0
  0
CLASS
  1
ACMCENTERLINESTANDARDANSI
  2
AmdtCenterLineStdANSI
  3
"Amdt_StdImp|Product Description: AutoCAD Mechanical 2004 DX|Company: Autodesk"
 90
        0
280
     0
281
     0
  0
CLASS
  1
ACAMGLAYSTD
  2
AcAmgLayStd
  3
"AcAmgLayStd|Product Description: AutoCAD Mechanical 2000|Company: Autodesk"
 90
        0
280
     0
281
     0
  0
CLASS
  1
ACAMGDIMSTD
  2
AcAmgDimStd
  3
"AcAmgDimStd|Product Description: AutoCAD Mechanical 2000|Company: Autodesk"
 90
        0
280
     0
281
     0
  0
CLASS
  1
ACAMGTITLESTD
  2
AcAmgTitleStd
  3
"TITLEAPP"
 90
        0
280
     0
281
     0
  0
CLASS
  1
ACMNOTESTANDARDANSI
  2
AmdtNoteStdANSI
  3
"Amdt_StdImp|Product Description: AutoCAD Mechanical 2004 DX|Company: Autodesk"
 90
        0
280
     0
281
     0
  0
CLASS
  1
ACMTHREADLINESTANDARDANSI
  2
AmdtThreadLineStdANSI
  3
"Amdt_StdImp|Product Description: AutoCAD Mechanical 2004 DX|Company: Autodesk"
 90
        0
280
     0
281
     0
  0
CLASS
  1
ACMSTANDARDISO
  2
AcmStandardISO
  3
"Amdt_StdImp|Product Description: AutoCAD Mechanical 2004 DX|Company: Autodesk"
 90
        0
280
     0
281
     0
  0
CLASS
  1
AMDTEDGESTANDARDISO
  2
AmdtEdgeStdISO
  3
"Amdt_StdImp|Product Description: AutoCAD Mechanical 2004 DX|Company: Autodesk"
 90
        0
280
     0
281
     0
  0
CLASS
  1
ACMSURFSTANDARDISO
  2
AcmSurfTextStdISO
  3
"Amdt_StdImp|Product Description: AutoCAD Mechanical 2004 DX|Company: Autodesk"
 90
        0
280
     0
281
     0
  0
CLASS
  1
ACMFCFSTANDARDISO
  2
AcmFCFStdISO
  3
"Amdt_StdImp|Product Description: AutoCAD Mechanical 2004 DX|Company: Autodesk"
 90
        0
280
     0
281
     0
  0
CLASS
  1
ACMWELDSTANDARDISO
  2
AcmWeldingStdISO
  3
"Amdt_StdImp|Product Description: AutoCAD Mechanical 2004 DX|Company: Autodesk"
 90
        0
280
     0
281
     0
  0
CLASS
  1
ACMIDSTANDARDISO
  2
AcmIdStdISO
  3
"Amdt_StdImp|Product Description: AutoCAD Mechanical 2004 DX|Company: Autodesk"
 90
        0
280
     0
281
     0
  0
CLASS
  1
ACMDATUMSTANDARDISO
  2
AcmDatumStdISO
  3
"Amdt_StdImp|Product Description: AutoCAD Mechanical 2004 DX|Company: Autodesk"
 90
        0
280
     0
281
     0
  0
CLASS
  1
ACMBOMSTANDARDISO
  2
AcmBOMStdISO
  3
"Amdt_StdImp|Product Description: AutoCAD Mechanical 2004 DX|Company: Autodesk"
 90
        0
280
     0
281
     0
  0
CLASS
  1
ACMDETAILSTANDARDISO
  2
AmdtDetailSymStdISO
  3
"Amdt_StdImp|Product Description: AutoCAD Mechanical 2004 DX|Company: Autodesk"
 90
        0
280
     0
281
     0
  0
CLASS
  1
ACMSECTIONSTANDARDISO
  2
AmdtSectionSymStdISO
  3
"Amdt_StdImp|Product Description: AutoCAD Mechanical 2004 DX|Company: Autodesk"
 90
        0
280
     0
281
     0
  0
CLASS
  1
ACMCENTERLINESTANDARDISO
  2
AmdtCenterLineStdISO
  3
"Amdt_StdImp|Product Description: AutoCAD Mechanical 2004 DX|Company: Autodesk"
 90
        0
280
     0
281
     0
  0
CLASS
  1
ACMNOTESTANDARDISO
  2
AmdtNoteStdISO
  3
"Amdt_StdImp|Product Description: AutoCAD Mechanical 2004 DX|Company: Autodesk"
 90
        0
280
     0
281
     0
  0
CLASS
  1
ACMTHREADLINESTANDARDISO
  2
AmdtThreadLineStdISO
  3
"Amdt_StdImp|Product Description: AutoCAD Mechanical 2004 DX|Company: Autodesk"
 90
        0
280
     0
281
     0
  0
CLASS
  1
ACMSTANDARDJIS
  2
AcmStandardJIS
  3
"Amdt_StdImp|Product Description: AutoCAD Mechanical 2004 DX|Company: Autodesk"
 90
        0
280
     0
281
     0
  0
CLASS
  1
ACMSURFSTANDARDJIS
  2
AcmSurfTextStdJIS
  3
"Amdt_StdImp|Product Description: AutoCAD Mechanical 2004 DX|Company: Autodesk"
 90
        0
280
     0
281
     0
  0
CLASS
  1
ACMFCFSTANDARDJIS
  2
AcmFCFStdJIS
  3
"Amdt_StdImp|Product Description: AutoCAD Mechanical 2004 DX|Company: Autodesk"
 90
        0
280
     0
281
     0
  0
CLASS
  1
ACMWELDSTANDARDJIS
  2
AcmWeldingStdJIS
  3
"Amdt_StdImp|Product Description: AutoCAD Mechanical 2004 DX|Company: Autodesk"
 90
        0
280
     0
281
     0
  0
CLASS
  1
ACMIDSTANDARDJIS
  2
AcmIdStdJIS
  3
"Amdt_StdImp|Product Description: AutoCAD Mechanical 2004 DX|Company: Autodesk"
 90
        0
280
     0
281
     0
  0
CLASS
  1
ACMDATUMSTANDARDJIS
  2
AcmDatumStdJIS
  3
"Amdt_StdImp|Product Description: AutoCAD Mechanical 2004 DX|Company: Autodesk"
 90
        0
280
     0
281
     0
  0
CLASS
  1
ACMBOMSTANDARDJIS
  2
AcmBOMStdJIS
  3
"Amdt_StdImp|Product Description: AutoCAD Mechanical 2004 DX|Company: Autodesk"
 90
        0
280
     0
281
     0
  0
CLASS
  1
ACMDETAILSTANDARDJIS
  2
AmdtDetailSymStdJIS
  3
"Amdt_StdImp|Product Description: AutoCAD Mechanical 2004 DX|Company: Autodesk"
 90
        0
280
     0
281
     0
  0
CLASS
  1
ACMSECTIONSTANDARDJIS
  2
AmdtSectionSymStdJIS
  3
"Amdt_StdImp|Product Description: AutoCAD Mechanical 2004 DX|Company: Autodesk"
 90
        0
280
     0
281
     0
  0
CLASS
  1
ACMCENTERLINESTANDARDJIS
  2
AmdtCenterLineStdJIS
  3
"Amdt_StdImp|Product Description: AutoCAD Mechanical 2004 DX|Company: Autodesk"
 90
        0
280
     0
281
     0
  0
CLASS
  1
ACMTHREADLINESTANDARDJIS
  2
AmdtThreadLineStdJIS
  3
"Amdt_StdImp|Product Description: AutoCAD Mechanical 2004 DX|Company: Autodesk"
 90
        0
280
     0
281
     0
  0
CLASS
  1
ACMNOTESTANDARDJIS
  2
AmdtNoteStdJIS
  3
"Amdt_StdImp|Product Description: AutoCAD Mechanical 2004 DX|Company: Autodesk"
 90
        0
280
     0
281
     0
  0
CLASS
  1
ACIMSTRSYSVAR
  2
AcImStrSysVar
  3
AcMeServices
 90
        0
280
     0
281
     0
  0
CLASS
  1
AMDTADMENUSTATE
  2
AmdtAdMenuState
  3
DesignerServices
 90
        0
280
     0
281
     0
  0
CLASS
  1
ADAPPL
  2
AcAdAppl
  3
DesignerServices
 90
        0
280
     0
281
     0
  0
CLASS
  1
DEPMGR
  2
AcAdDepMgr
  3
DesignerServices
 90
        0
280
     0
281
     0
  0
CLASS
  1
PARAMMGR
  2
AcAdParamMgr
  3
DesignerServices
 90
        0
280
     0
281
     0
  0
CLASS
  1
PARAMSCOPE
  2
AcAdParamScope
  3
DesignerServices
 90
        0
280
     0
281
     0
  0
CLASS
  1
NAMEDAPPL
  2
AcAdNamedAppl
  3
DesignerServices
 90
        0
280
     0
281
     0
  0
CLASS
  1
AMDTDMMENUSTATE
  2
AmdtDmMenuState
  3
AcMechDwgViewMgmt
 90
        0
280
     0
281
     0
  0
CLASS
  1
AMDTAMMENUSTATE
  2
AmdtAmMenuState
  3
DesignerAssemblies
 90
        0
280
     0
281
     0
  0
CLASS
  1
ACAMPROJECT
  2
AcAmProject
  3
DesignerAssemblies
 90
        0
280
     0
281
     0
  0
CLASS
  1
ACAMGRCOMPDEF
  2
AcAmGrCompDef
  3
DesignerAssemblies
 90
        0
280
     0
281
     0
  0
CLASS
  1
ACCMCONTEXT
  2
AcCmContext
  3
DesignerAssemblies
 90
        0
280
     0
281
     0
  0
CLASS
  1
ACAMCOMPDEF
  2
AcAmCompDef
  3
DesignerAssemblies
 90
        0
280
     0
281
     0
  0
CLASS
  1
ACAMCOMPDEFMGR
  2
AcAmCompDefMgr
  3
DesignerAssemblies
 90
        0
280
     0
281
     0
  0
CLASS
  1
AMCONTEXTMGR
  2
AcAmContextMgr
  3
DesignerAssemblies
 90
        0
280
     0
281
     0
  0
CLASS
  1
ACAMCONTEXTMODELER
  2
AcAmContextModeler
  3
DesignerAssemblies
 90
        0
280
     0
281
     0
  0
CLASS
  1
ACMDATADICTIONARY
  2
AcmDataDictionary
  3
"AcmSymBB|Product Description: AutoCAD Mechanical 2004 DX|Company: Autodesk"
 90
        0
280
     0
281
     0
  0
CLASS
  1
CATALOGSTATE
  2
AcAmCatalogState
  3
DesignerAssemblies
 90
        0
280
     0
281
     0
  0
CLASS
  1
ACAMGRCOMPDEFSET
  2
AcAmGrCompDefSet
  3
DesignerAssemblies
 90
        0
280
     0
281
     0
  0
CLASS
  1
AMDTBROWSERDBTAB
  2
AmdtBrowserDbTab
  3
McadcomServices
 90
        0
280
     0
281
     0
  0
CLASS
  1
CBROWSERAPPOBJECT
  2
CBrowserAppObject
  3
McadcomServices
 90
        0
280
     0
281
     0
  0
CLASS
  1
DM_PLACEHOLDER
  2
AcDmSelsetPlaceholder
  3
AcMechDwgViewMgmt
 90
        0
280
     0
281
     0
  0
CLASS
  1
ACAMGFILTERDAT
  2
AcAmgFilterDat
  3
"AcadM|Product Description: AutoCAD Mechanical 2000|Company: Autodesk"
 90
    32768
280
     0
281
     0
  0
CLASS
  1
DICTIONARYVAR
  2
AcDbDictionaryVar
  3
ObjectDBX Classes
 90
        0
280
     0
281
     0
  0
CLASS
  1
AMDTNOTE
  2
AmdtNote
  3
"AcmSymBB|Product Description: AutoCAD Mechanical 2004 DX|Company: Autodesk"
 90
    33791
280
     0
281
     1
  0
CLASS
  1
ACDBCIRCARCRES
  2
AcDbCircArcRes
  3
AcGrefServices
 90
    32768
280
     0
281
     0
  0
CLASS
  1
ACDBLINERES
  2
AcDbLineRes
  3
AcGrefServices
 90
    32768
280
     0
281
     0
  0
CLASS
  1
ACMSURFSYM
  2
AcmSurfaceTexture
  3
"AcmSymBB|Product Description: AutoCAD Mechanical 2004 DX|Company: Autodesk"
 90
    33791
280
     0
281
     1
  0
CLASS
  1
ACDBDIMENSIONRES
  2
AcDbDimensionRes
  3
"AcDbDimensionRes|Product Description: AutoCAD Mechanical 2000|Company: Autodesk"
 90
    32768
280
     0
281
     0
  0
CLASS
  1
SORTENTSTABLE
  2
AcDbSortentsTable
  3
ObjectDBX Classes
 90
    32768
280
     0
281
     0
  0
CLASS
  1
ACMDATAENTRYBLOCK
  2
AcmDataEntryBlock
  3
"AcmSymBB|Product Description: AutoCAD Mechanical 2004 DX|Company: Autodesk"
 90
    32768
280
     0
281
     0
  0
ENDSEC
  0
SECTION
  2
TABLES
  0
TABLE
  2
VPORT
  5
8
330
0
100
AcDbSymbolTable
 70
     3
  0
VPORT
  5
9EA
330
8
100
AcDbSymbolTableRecord
100
AcDbViewportTableRecord
  2
*Active
 70
     0
 10
0.0
 20
0.0
 11
1.0
 21
1.0
 12
205.5000013760291
 22
0.0000006449408261
 13
0.0
 23
0.0
 14
10.0
 24
10.0
 15
10.0
 25
10.0
 16
0.0
 26
0.0
 36
1.0
 17
0.0
 27
0.0
 37
0.0
 40
448.9287498604531
 41
1.324468085106383
 42
50.0
 43
0.0
 44
0.0
 50
0.0
 51
0.0
 71
     0
 72
   100
 73
     1
 74
     1
 75
     0
 76
     0
 77
     0
 78
     0
281
     0
 65
     1
110
0.0
120
0.0
130
0.0
111
1.0
121
0.0
131
0.0
112
0.0
122
1.0
132
0.0
 79
     0
146
0.0
  0
ENDTAB
  0
TABLE
  2
LTYPE
  5
5
330
0
100
AcDbSymbolTable
 70
    22
  0
LTYPE
  5
12
330
5
100
AcDbSymbolTableRecord
100
AcDbLinetypeTableRecord
  2
BYBLOCK
 70
     0
  3

 72
    65
 73
     0
 40
0.0
  0
LTYPE
  5
13
330
5
100
AcDbSymbolTableRecord
100
AcDbLinetypeTableRecord
  2
BYLAYER
 70
     0
  3

 72
    65
 73
     0
 40
0.0
  0
LTYPE
  5
14
330
5
100
AcDbSymbolTableRecord
100
AcDbLinetypeTableRecord
  2
CONTINUOUS
 70
     0
  3
Solid line
 72
    65
 73
     0
 40
0.0
  0
LTYPE
  5
22
330
5
100
AcDbSymbolTableRecord
100
AcDbLinetypeTableRecord
  2
CENTER
 70
     0
  3
__ . __
 72
    65
 73
     4
 40
7.0
 49
4.0
 74
     0
 49
-1.0
 74
     0
 49
1.0
 74
     0
 49
-1.0
 74
     0
  0
LTYPE
  5
23
330
5
100
AcDbSymbolTableRecord
100
AcDbLinetypeTableRecord
  2
CENTER2
 70
     0
  3
Center (.5x) ___ _ ___ _ ___ _ ___ _ ___ _ ___
 72
    65
 73
     4
 40
28.575
 49
19.05
 74
     0
 49
-3.174999999999999
 74
     0
 49
3.174999999999999
 74
     0
 49
-3.174999999999999
 74
     0
  0
LTYPE
  5
24
330
5
100
AcDbSymbolTableRecord
100
AcDbLinetypeTableRecord
  2
PHANTOM
 70
     0
  3
Phantom ______  __  __  ______  __  __  ______
 72
    65
 73
     6
 40
63.5
 49
31.75
 74
     0
 49
-6.349999999999998
 74
     0
 49
6.349999999999998
 74
     0
 49
-6.349999999999998
 74
     0
 49
6.349999999999998
 74
     0
 49
-6.349999999999998
 74
     0
  0
LTYPE
  5
25
330
5
100
AcDbSymbolTableRecord
100
AcDbLinetypeTableRecord
  2
PHANTOM2
 70
     0
  3
Phantom (.5x) ___ _ _ ___ _ _ ___ _ _ ___ _ _
 72
    65
 73
     6
 40
31.75
 49
15.875
 74
     0
 49
-3.174999999999999
 74
     0
 49
3.174999999999999
 74
     0
 49
-3.174999999999999
 74
     0
 49
3.174999999999999
 74
     0
 49
-3.174999999999999
 74
     0
  0
LTYPE
  5
26
330
5
100
AcDbSymbolTableRecord
100
AcDbLinetypeTableRecord
  2
DASHED
 70
     0
  3
Dashed __ __ __ __ __ __ __ __ __ __ __ __ __ _
 72
    65
 73
     2
 40
19.05
 49
12.7
 74
     0
 49
-6.349999999999998
 74
     0
  0
LTYPE
  5
27
330
5
100
AcDbSymbolTableRecord
100
AcDbLinetypeTableRecord
  2
DASHED2
 70
     0
  3
Dashed (.5x) _ _ _ _ _ _ _ _ _ _ _ _ _ _ _ _ _
 72
    65
 73
     2
 40
9.524999999999996
 49
6.349999999999998
 74
     0
 49
-3.174999999999998
 74
     0
  0
LTYPE
  5
235
330
5
100
AcDbSymbolTableRecord
100
AcDbLinetypeTableRecord
  2
AM_ISO02W050
 70
     0
  3
__ __ __ __ __ __ __ __ __ __ __ __ __ __ __
 72
    65
 73
     2
 40
7.5
 49
6.0
 74
     0
 49
-1.5
 74
     0
  0
LTYPE
  5
236
330
5
100
AcDbSymbolTableRecord
100
AcDbLinetypeTableRecord
  2
AM_ISO08W050
 70
     0
  3
____ . ____ . ____ . ____ . ____ . ____ . ____
 72
    65
 73
     4
 40
18.0
 49
12.0
 74
     0
 49
-1.5
 74
     0
 49
3.0
 74
     0
 49
-1.5
 74
     0
  0
LTYPE
  5
237
330
5
100
AcDbSymbolTableRecord
100
AcDbLinetypeTableRecord
  2
AM_ISO09W050
 70
     0
  3
_____ . . _____ . . _____ . . ____ .. ____
 72
    65
 73
     6
 40
22.5
 49
12.0
 74
     0
 49
-1.5
 74
     0
 49
3.0
 74
     0
 49
-1.5
 74
     0
 49
3.0
 74
     0
 49
-1.5
 74
     0
  0
LTYPE
  5
238
330
5
100
AcDbSymbolTableRecord
100
AcDbLinetypeTableRecord
  2
Amconstr
 70
     0
  3
_______________________
 72
    65
 73
     2
 40
9999.0
 49
9999.0
 74
     0
 49
0.0
 74
     0
  0
LTYPE
  5
239
330
5
100
AcDbSymbolTableRecord
100
AcDbLinetypeTableRecord
  2
AM_ISO02W050x2
 70
     0
  3
 _ _ _ _ _ _ _ _ _ _ _ _
 72
    65
 73
     2
 40
3.75
 49
3.0
 74
     0
 49
-0.75
 74
     0
  0
LTYPE
  5
23A
330
5
100
AcDbSymbolTableRecord
100
AcDbLinetypeTableRecord
  2
AM_ISO08W050x2
 70
     0
  3
__ . __ . __ . __ . __ . __
 72
    65
 73
     4
 40
9.0
 49
6.0
 74
     0
 49
-0.75
 74
     0
 49
1.5
 74
     0
 49
-0.75
 74
     0
  0
LTYPE
  5
23B
330
5
100
AcDbSymbolTableRecord
100
AcDbLinetypeTableRecord
  2
Amzigzag
 70
     0
  3
/\/-/\/-/\/-/\/-/\/-/\/
 72
    65
 73
     2
 40
11.0001
 49
0.0001
 74
     4
 75
   135
340
21
 46
0.04
 50
0.0
 44
0.0
 45
0.0
 49
-11.0
 74
     0
  0
LTYPE
  5
269
330
5
100
AcDbSymbolTableRecord
100
AcDbLinetypeTableRecord
  2
HIDDEN
 70
     0
  3
Hidden __ __ __ __ __ __ __ __ __ __ __ __ __ _
 72
    65
 73
     2
 40
9.524999999999996
 49
6.349999999999998
 74
     0
 49
-3.174999999999998
 74
     0
  0
LTYPE
  5
27D
330
5
100
AcDbSymbolTableRecord
100
AcDbLinetypeTableRecord
  2
ACANSTGB
 70
     0
  3
__ . . __ . .
 72
    65
 73
     6
 40
0.35433070866
 49
0.15748031496
 74
     0
 49
-0.03937007874
 74
     0
 49
0.03937007874
 74
     0
 49
-0.03937007874
 74
     0
 49
0.03937007874
 74
     0
 49
-0.03937007874
 74
     0
  0
LTYPE
  5
27E
330
5
100
AcDbSymbolTableRecord
100
AcDbLinetypeTableRecord
  2
ACANSTGL
 70
     0
  3
_ _ _ _ _
 72
    65
 73
     2
 40
0.11811023622
 49
0.07874015748
 74
     0
 49
-0.03937007874
 74
     0
  0
LTYPE
  5
29A
330
5
100
AcDbSymbolTableRecord
100
AcDbLinetypeTableRecord
  2
ACISOWELD
 70
     0
  3
_ _ _ _ _
 72
    65
 73
     2
 40
2.0
 49
2.0
 74
     0
 49
-1.0
 74
     0
  0
LTYPE
  5
29D
330
5
100
AcDbSymbolTableRecord
100
AcDbLinetypeTableRecord
  2
ACISOTGB
 70
     0
  3
__ . . __ . .
 72
    65
 73
     6
 40
9.0
 49
4.0
 74
     0
 49
-1.0
 74
     0
 49
1.0
 74
     0
 49
-1.0
 74
     0
 49
1.0
 74
     0
 49
-1.0
 74
     0
  0
LTYPE
  5
29E
330
5
100
AcDbSymbolTableRecord
100
AcDbLinetypeTableRecord
  2
ACISOTGL
 70
     0
  3
_ _ _ _ _
 72
    65
 73
     2
 40
3.0
 49
2.0
 74
     0
 49
-1.0
 74
     0
  0
LTYPE
  5
2B8
330
5
100
AcDbSymbolTableRecord
100
AcDbLinetypeTableRecord
  2
ACJISTGB
 70
     0
  3
__ . . __ . .
 72
    65
 73
     6
 40
9.0
 49
4.0
 74
     0
 49
-1.0
 74
     0
 49
1.0
 74
     0
 49
-1.0
 74
     0
 49
1.0
 74
     0
 49
-1.0
 74
     0
  0
LTYPE
  5
2B9
330
5
100
AcDbSymbolTableRecord
100
AcDbLinetypeTableRecord
  2
ACJISTGL
 70
     0
  3
_ _ _ _ _
 72
    65
 73
     2
 40
3.0
 49
2.0
 74
     0
 49
-1.0
 74
     0
  0
ENDTAB
  0
TABLE
  2
LAYER
  5
2
330
0
100
AcDbSymbolTable
 70
     8
  0
LAYER
  5
E
330
2
100
AcDbSymbolTableRecord
100
AcDbLayerTableRecord
  2
0
 70
     0
 62
     7
  6
CONTINUOUS
370
    -3
390
5D
  0
LAYER
  5
74
330
2
100
AcDbSymbolTableRecord
100
AcDbLayerTableRecord
  2
Defpoints
 70
     0
 62
     7
  6
CONTINUOUS
290
     0
370
    -3
390
5D
  0
LAYER
  5
75
330
2
100
AcDbSymbolTableRecord
100
AcDbLayerTableRecord
  2
PV0001_1
 70
     0
 62
     7
  6
CONTINUOUS
370
    -3
390
5D
  0
LAYER
  5
2CA
330
2
100
AcDbSymbolTableRecord
100
AcDbLayerTableRecord
  2
outline
 70
     0
 62
     4
  6
CONTINUOUS
370
    50
390
5D
  0
LAYER
  5
327
330
2
100
AcDbSymbolTableRecord
100
AcDbLayerTableRecord
  2
AM_CL
 70
     0
 62
     1
  6
Amconstr
370
    25
390
5D
1001
AcAecLayerStandard
1000

1000

  0
LAYER
  5
3D1
330
2
100
AcDbSymbolTableRecord
100
AcDbLayerTableRecord
  2
center
 70
     0
 62
     2
  6
CENTER2
370
    25
390
5D
  0
LAYER
  5
3D2
330
2
100
AcDbSymbolTableRecord
100
AcDbLayerTableRecord
  2
dimension
 70
     0
 62
     7
  6
CONTINUOUS
370
    25
390
5D
  0
LAYER
  5
3D3
330
2
100
AcDbSymbolTableRecord
100
AcDbLayerTableRecord
  2
imaginary
 70
     0
 62
     2
  6
PHANTOM2
370
    25
390
5D
  0
ENDTAB
  0
TABLE
  2
STYLE
  5
3
330
0
100
AcDbSymbolTable
 70
    10
  0
STYLE
  5
F
330
3
100
AcDbSymbolTableRecord
100
AcDbTextStyleTableRecord
  2
STANDARD
 70
     0
 40
0.0
 41
1.0
 50
0.0
 71
     0
 42
2.5
  3
monotxt.shx
  4
extfont.shx
  0
STYLE
  5
21
330
3
100
AcDbSymbolTableRecord
100
AcDbTextStyleTableRecord
  2

 70
     1
 40
0.0
 41
1.0
 50
0.0
 71
     0
 42
2.5
  3
ltypeshp.shx
  4

  0
STYLE
  5
30
330
3
100
AcDbSymbolTableRecord
100
AcDbTextStyleTableRecord
  2
DIM
 70
     0
 40
0.0
 41
1.0
 50
0.0
 71
     0
 42
2.5
  3
monotxt.shx
  4
extfont.shx
  0
STYLE
  5
31
330
3
100
AcDbSymbolTableRecord
100
AcDbTextStyleTableRecord
  2
CONVERT
 70
     0
 40
0.0
 41
1.0
 50
0.0
 71
     0
 42
2.5
  3
monotxt.shx
  4
extfont.shx
  0
STYLE
  5
276
330
3
100
AcDbSymbolTableRecord
100
AcDbTextStyleTableRecord
  2
ACANSTS
 70
     0
 40
1.0
 41
1.0
 50
0.0
 71
     0
 42
5.0
  3
romans.shx
  4
extfont.shx
  0
STYLE
  5
279
330
3
100
AcDbSymbolTableRecord
100
AcDbTextStyleTableRecord
  2
ACANSGDT
 70
     0
 40
0.0
 41
1.0
 50
0.0
 71
     0
 42
5.0
  3
amgdtans.shx
  4

  0
STYLE
  5
294
330
3
100
AcDbSymbolTableRecord
100
AcDbTextStyleTableRecord
  2
ACISOTS
 70
     0
 40
1.0
 41
1.0
 50
0.0
 71
     0
 42
2.5
  3
isocp.shx
  4
extfont.shx
  0
STYLE
  5
298
330
3
100
AcDbSymbolTableRecord
100
AcDbTextStyleTableRecord
  2
ACISOGDT
 70
     0
 40
0.0
 41
1.0
 50
0.0
 71
     0
 42
2.5
  3
amgdt.shx
  4

  0
STYLE
  5
2B1
330
3
100
AcDbSymbolTableRecord
100
AcDbTextStyleTableRecord
  2
ACJISTS
 70
     0
 40
1.0
 41
1.0
 50
0.0
 71
     0
 42
2.5
  3
isocp.shx
  4
bigfont.shx
  0
STYLE
  5
2B4
330
3
100
AcDbSymbolTableRecord
100
AcDbTextStyleTableRecord
  2
ACJISGDT
 70
     0
 40
0.0
 41
1.0
 50
0.0
 71
     0
 42
2.5
  3
amgdt.shx
  4

  0
ENDTAB
  0
TABLE
  2
VIEW
  5
6
330
0
100
AcDbSymbolTable
 70
     0
  0
ENDTAB
  0
TABLE
  2
UCS
  5
7
330
0
100
AcDbSymbolTable
 70
     0
  0
ENDTAB
  0
TABLE
  2
APPID
  5
9
330
0
100
AcDbSymbolTable
 70
    31
  0
APPID
  5
10
330
9
100
AcDbSymbolTableRecord
100
AcDbRegAppTableRecord
  2
ACAD
 70
     0
  0
APPID
  5
219
330
9
100
AcDbSymbolTableRecord
100
AcDbRegAppTableRecord
  2
MCAD_NO_VIS
 70
     0
  0
APPID
  5
21A
330
9
100
AcDbSymbolTableRecord
100
AcDbRegAppTableRecord
  2
ACAD_TEMP_GRAPHIC
 70
     0
  0
APPID
  5
21B
330
9
100
AcDbSymbolTableRecord
100
AcDbRegAppTableRecord
  2
GENIUS_GENREC_14
 70
     0
  0
APPID
  5
21C
330
9
100
AcDbSymbolTableRecord
100
AcDbRegAppTableRecord
  2
GENIUS_GENODEF_13
 70
     0
  0
APPID
  5
21D
330
9
100
AcDbSymbolTableRecord
100
AcDbRegAppTableRecord
  2
GENIUS_GENOBJ-N-REC_13
 70
     0
  0
APPID
  5
21E
330
9
100
AcDbSymbolTableRecord
100
AcDbRegAppTableRecord
  2
GENIUS_GENOBJ-N-CEN_13
 70
     0
  0
APPID
  5
21F
330
9
100
AcDbSymbolTableRecord
100
AcDbRegAppTableRecord
  2
GENIUS_GENDTOL_13
 70
     0
  0
APPID
  5
220
330
9
100
AcDbSymbolTableRecord
100
AcDbRegAppTableRecord
  2
GENIUS_GENDIMSH_14
 70
     0
  0
APPID
  5
221
330
9
100
AcDbSymbolTableRecord
100
AcDbRegAppTableRecord
  2
ACATTRIBSERVICES
 70
     0
  0
APPID
  5
222
330
9
100
AcDbSymbolTableRecord
100
AcDbRegAppTableRecord
  2
GENIUS_GENFIL_13
 70
     0
  0
APPID
  5
223
330
9
100
AcDbSymbolTableRecord
100
AcDbRegAppTableRecord
  2
GENIUS_GENOBJ-N-CHA_13
 70
     0
  0
APPID
  5
224
330
9
100
AcDbSymbolTableRecord
100
AcDbRegAppTableRecord
  2
GENIUS_GENOLIS_13
 70
     0
  0
APPID
  5
225
330
9
100
AcDbSymbolTableRecord
100
AcDbRegAppTableRecord
  2
GENIUS_GENOENT_13
 70
     0
  0
APPID
  5
226
330
9
100
AcDbSymbolTableRecord
100
AcDbRegAppTableRecord
  2
GENIUS_GENOREF_13
 70
     0
  0
APPID
  5
227
330
9
100
AcDbSymbolTableRecord
100
AcDbRegAppTableRecord
  2
GENIUS_GENOBJ-N-CRS_13
 70
     0
  0
APPID
  5
228
330
9
100
AcDbSymbolTableRecord
100
AcDbRegAppTableRecord
  2
GENIUS_GENOBJ-N-TIT_13
 70
     0
  0
APPID
  5
229
330
9
100
AcDbSymbolTableRecord
100
AcDbRegAppTableRecord
  2
GENIUS_GENTITLE_13
 70
     0
  0
APPID
  5
22A
330
9
100
AcDbSymbolTableRecord
100
AcDbRegAppTableRecord
  2
GENIUS_GENSCREG_15
 70
     0
  0
APPID
  5
22B
330
9
100
AcDbSymbolTableRecord
100
AcDbRegAppTableRecord
  2
GENIUS_GENOBJ-N-SDF_13
 70
     0
  0
APPID
  5
22C
330
9
100
AcDbSymbolTableRecord
100
AcDbRegAppTableRecord
  2
GENIUS_GENTRA_14
 70
     0
  0
APPID
  5
22D
330
9
100
AcDbSymbolTableRecord
100
AcDbRegAppTableRecord
  2
GENIUS_GENOBJ-N-FIL_13
 70
     0
  0
APPID
  5
22E
330
9
100
AcDbSymbolTableRecord
100
AcDbRegAppTableRecord
  2
AD_DRAW
 70
     0
  0
APPID
  5
22F
330
9
100
AcDbSymbolTableRecord
100
AcDbRegAppTableRecord
  2
DESIGNERASSEMBLIES
 70
     0
  0
APPID
  5
230
330
9
100
AcDbSymbolTableRecord
100
AcDbRegAppTableRecord
  2
ACADM_DIM_EDIT
 70
     0
  0
APPID
  5
231
330
9
100
AcDbSymbolTableRecord
100
AcDbRegAppTableRecord
  2
AMDT_DM_ADJ
 70
     0
  0
APPID
  5
328
330
9
100
AcDbSymbolTableRecord
100
AcDbRegAppTableRecord
  2
AcAecLayerStandard
 70
     0
  0
APPID
  5
3D5
330
9
100
AcDbSymbolTableRecord
100
AcDbRegAppTableRecord
  2
ACAD_DSTYLE_DIMARC_LENGTH_SYMBOL
 70
     0
  0
APPID
  5
3D6
330
9
100
AcDbSymbolTableRecord
100
AcDbRegAppTableRecord
  2
ACAD_DSTYLE_DIMJOGGED_JOGANGLE_SYMBOL
 70
     0
  0
APPID
  5
3D7
330
9
100
AcDbSymbolTableRecord
100
AcDbRegAppTableRecord
  2
ACAD_PSEXT
 70
     0
  0
APPID
  5
6EB
330
9
100
AcDbSymbolTableRecord
100
AcDbRegAppTableRecord
  2
ACAD_EXEMPT_FROM_CAD_STANDARDS
 70
     0
  0
ENDTAB
  0
TABLE
  2
DIMSTYLE
  5
A
330
0
100
AcDbSymbolTable
 70
    29
100
AcDbDimStyleTable
 71
     1
340
1D
  0
DIMSTYLE
105
1D
330
A
100
AcDbSymbolTableRecord
100
AcDbDimStyleTableRecord
  2
STANDARD
 70
     0
 41
3.0
 42
1.0
 43
7.0
 44
2.0
 73
     0
 74
     0
 77
     1
140
2.799999999999998
141
0.0
143
0.0394
147
0.7
171
     4
172
     1
173
     1
176
    44
177
    44
178
    44
271
     3
272
     3
273
     8
274
     4
289
     0
340
F
341
32
343
32
344
32
  0
DIMSTYLE
105
286
330
A
100
AcDbSymbolTableRecord
100
AcDbDimStyleTableRecord
  2
AM_ANSI
 70
     0
  4
mm
 41
0.1
 42
0.05
 43
0.5
 44
0.1
 47
0.1
 48
0.1
 78
     7
 79
     2
140
0.12
141
0.0
146
0.71
147
0.06
176
   256
177
   256
178
     2
274
     4
340
F
371
    -1
372
    -1
  0
DIMSTYLE
105
287
330
A
100
AcDbSymbolTableRecord
100
AcDbDimStyleTableRecord
  2
AM_ANSI$3
 70
     0
  4
mm
 41
0.1
 42
0.05
 43
0.5
 44
0.1
 47
0.1
 48
0.1
 78
     7
 79
     2
140
0.12
141
0.0
146
0.71
147
0.06
176
   256
177
   256
178
     2
274
     4
288
     1
289
     0
340
F
371
    -1
372
    -1
  0
DIMSTYLE
105
288
330
A
100
AcDbSymbolTableRecord
100
AcDbDimStyleTableRecord
  2
AM_ANSI$4
 70
     0
  4
mm
 41
0.1
 42
0.05
 43
0.5
 44
0.1
 47
0.1
 48
0.1
 78
     7
 79
     2
140
0.12
141
0.0
146
0.71
147
0.06
176
   256
177
   256
178
     2
274
     4
288
     1
289
     0
340
F
371
    -1
372
    -1
  0
DIMSTYLE
105
289
330
A
100
AcDbSymbolTableRecord
100
AcDbDimStyleTableRecord
  2
AM_ANSI$7
 70
     0
  4
mm
 41
0.1
 42
0.05
 43
0.5
 44
0.1
 47
0.1
 48
0.1
 78
     7
 79
     2
140
0.24
141
0.0
146
0.71
147
0.06
176
   256
177
   256
178
     2
274
     4
340
F
371
    -1
372
    -1
  0
DIMSTYLE
105
28A
330
A
100
AcDbSymbolTableRecord
100
AcDbDimStyleTableRecord
  2
AM_ANSI$SF
 70
     0
  4
mm
 41
0.1
 42
0.05
 43
0.5
 44
0.1
 47
0.1
 48
0.1
 75
     1
 76
     1
 78
     7
 79
     2
140
0.12
141
0.0
146
0.71
147
0.06
176
   256
177
   256
178
     2
274
     4
340
F
371
    -1
372
    -1
  0
DIMSTYLE
105
28B
330
A
100
AcDbSymbolTableRecord
100
AcDbDimStyleTableRecord
  2
AM_ANSI$SH
 70
     0
  4
mm
 41
0.1
 42
0.05
 43
0.5
 44
0.1
 47
0.1
 48
0.1
 75
     1
 76
     1
 78
     7
 79
     2
140
0.12
141
0.0
146
0.71
147
0.06
173
     1
176
   256
177
   256
178
     2
274
     4
340
F
343
28C
371
    -1
372
    -1
  0
DIMSTYLE
105
2A6
330
A
100
AcDbSymbolTableRecord
100
AcDbDimStyleTableRecord
  2
AM_ISO
 70
     0
  4
"
 41
2.5
 42
1.0
 43
10.0
 44
1.0
 47
0.1
 48
0.1
 73
     0
 74
     0
 77
     1
 78
     8
 79
     2
140
3.5
141
0.0
143
0.0393701
146
0.71
147
1.5
172
     1
176
   256
177
   256
178
     2
271
     2
272
     3
274
     4
283
     0
284
     8
340
F
371
    -1
372
    -1
  0
DIMSTYLE
105
2A7
330
A
100
AcDbSymbolTableRecord
100
AcDbDimStyleTableRecord
  2
AM_ISO$3
 70
     0
  4
"
 41
2.5
 42
1.0
 43
10.0
 44
1.0
 47
0.1
 48
0.1
 73
     0
 77
     1
 78
     8
 79
     2
140
3.5
141
0.0
143
0.0393701
146
0.71
147
1.5
176
   256
177
   256
178
     2
271
     2
272
     3
274
     4
283
     0
284
     8
288
     1
289
     0
340
F
371
    -1
372
    -1
  0
DIMSTYLE
105
2A8
330
A
100
AcDbSymbolTableRecord
100
AcDbDimStyleTableRecord
  2
AM_ISO$4
 70
     0
  4
"
 41
2.5
 42
1.0
 43
10.0
 44
1.0
 47
0.1
 48
0.1
 73
     0
 77
     1
 78
     8
 79
     2
140
3.5
141
0.0
143
0.0393701
146
0.71
147
1.5
176
   256
177
   256
178
     2
271
     2
272
     3
274
     4
283
     0
284
     8
288
     1
289
     0
340
F
371
    -1
372
    -1
  0
DIMSTYLE
105
2A9
330
A
100
AcDbSymbolTableRecord
100
AcDbDimStyleTableRecord
  2
AM_ISO$6
 70
     0
  4
"
 41
2.5
 42
1.0
 43
10.0
 44
1.0
 47
0.1
 48
0.1
 73
     0
 74
     0
 78
     8
 79
     2
140
3.5
141
0.0
143
0.0393701
146
0.71
147
1.5
172
     1
176
   256
177
   256
178
     2
271
     2
272
     3
274
     4
283
     0
284
     8
340
F
371
    -1
372
    -1
  0
DIMSTYLE
105
2AA
330
A
100
AcDbSymbolTableRecord
100
AcDbDimStyleTableRecord
  2
AM_ISO$7
 70
     0
  4
"
 41
2.5
 42
1.0
 43
10.0
 44
1.0
 47
0.1
 48
0.1
 73
     0
 74
     0
 77
     1
 78
     8
 79
     2
140
5.0
141
0.0
143
0.0393701
146
0.71
147
1.5
172
     1
176
   256
177
   256
178
     2
271
     2
272
     3
274
     4
283
     0
284
     8
340
F
371
    -1
372
    -1
  0
DIMSTYLE
105
2AB
330
A
100
AcDbSymbolTableRecord
100
AcDbDimStyleTableRecord
  2
AM_ISO$SF
 70
     0
  4
"
 41
2.5
 42
1.0
 43
10.0
 44
1.0
 47
0.1
 48
0.1
 73
     0
 74
     0
 75
     1
 76
     1
 77
     1
 78
     8
 79
     2
140
3.5
141
0.0
143
0.0393701
146
0.71
147
1.5
172
     1
176
   256
177
   256
178
     2
271
     2
272
     3
274
     4
283
     0
284
     8
340
F
371
    -1
372
    -1
  0
DIMSTYLE
105
2AC
330
A
100
AcDbSymbolTableRecord
100
AcDbDimStyleTableRecord
  2
AM_ISO$SH
 70
     0
  4
"
 41
2.5
 42
1.0
 43
10.0
 44
1.0
 47
0.1
 48
0.1
 73
     0
 74
     0
 75
     1
 76
     1
 77
     1
 78
     8
 79
     2
140
3.5
141
0.0
143
0.0393701
144
2.0
146
0.71
147
1.5
172
     1
173
     1
176
   256
177
   256
178
     2
271
     2
272
     3
274
     4
283
     0
284
     8
340
F
343
28C
371
    -1
372
    -1
  0
DIMSTYLE
105
2C6
330
A
100
AcDbSymbolTableRecord
100
AcDbDimStyleTableRecord
  2
kuroda_sunpo
 70
     0
  4
"
 41
2.5
 42
1.0
 43
8.0
 44
1.0
 47
0.1
 48
0.1
 73
     0
 74
     0
 77
     3
 78
     8
 79
     2
140
3.2
141
0.0
143
0.0393701
146
0.71
147
1.5
172
     1
176
     7
177
     7
178
     7
179
     2
271
     3
272
     3
275
     1
283
     0
340
F
341
2C7
342
2C7
371
    -1
372
    -1
  0
DIMSTYLE
105
2CE
330
A
100
AcDbSymbolTableRecord
100
AcDbDimStyleTableRecord
  2
kuroda_sunpo$3
 70
     0
  4
"
 41
2.5
 42
1.0
 43
8.0
 44
1.0
 47
0.1
 48
0.1
 73
     0
 77
     3
 78
     8
 79
     2
140
3.2
141
0.0
143
0.0393701
146
0.71
147
1.5
176
     7
177
     7
178
     7
179
     2
271
     3
272
     3
275
     1
283
     0
288
     1
289
     0
340
F
341
2C7
342
2C7
371
    -1
372
    -1
  0
DIMSTYLE
105
2CF
330
A
100
AcDbSymbolTableRecord
100
AcDbDimStyleTableRecord
  2
kuroda_sunpo$4
 70
     0
  4
"
 41
2.5
 42
1.0
 43
8.0
 44
1.0
 47
0.1
 48
0.1
 73
     0
 77
     3
 78
     8
 79
     2
140
3.2
141
0.0
143
0.0393701
146
0.71
147
1.5
176
     7
177
     7
178
     7
179
     2
271
     3
272
     3
275
     1
283
     0
288
     1
289
     0
340
F
341
2C7
342
2C7
371
    -1
372
    -1
  0
DIMSTYLE
105
2D0
330
A
100
AcDbSymbolTableRecord
100
AcDbDimStyleTableRecord
  2
kuroda_sunpo$6
 70
     0
  4
"
 41
2.5
 42
1.0
 43
8.0
 44
1.0
 47
0.1
 48
0.1
 73
     0
 74
     0
 78
     8
 79
     2
140
3.2
141
0.0
143
0.0393701
146
0.71
147
1.5
172
     1
176
     7
177
     7
178
     7
179
     2
271
     3
272
     3
275
     1
283
     0
340
F
341
2C7
342
2C7
371
    -1
372
    -1
  0
DIMSTYLE
105
2D1
330
A
100
AcDbSymbolTableRecord
100
AcDbDimStyleTableRecord
  2
kuroda_sunpo$SF
 70
     0
  4
"
 41
2.5
 42
1.0
 43
8.0
 44
1.0
 47
0.1
 48
0.1
 73
     0
 74
     0
 75
     1
 76
     1
 77
     3
 78
     8
 79
     2
140
5.0
141
0.0
143
0.0393701
146
0.71
147
1.5
172
     1
176
   256
177
   256
178
     7
179
     2
271
     3
272
     3
275
     1
283
     0
340
F
341
32
342
32
371
    -1
372
    -1
  0
DIMSTYLE
105
2D8
330
A
100
AcDbSymbolTableRecord
100
AcDbDimStyleTableRecord
  2
kuroda_sunpo$SH
 70
     0
  4
"
 41
2.5
 42
1.0
 43
8.0
 44
1.0
 47
0.1
 48
0.1
 73
     0
 74
     0
 75
     1
 76
     1
 77
     3
 78
     8
 79
     2
140
5.0
141
0.0
143
0.0393701
144
2.0
146
0.71
147
1.5
172
     1
173
     1
176
   256
177
   256
178
     7
179
     2
271
     3
272
     3
275
     1
283
     0
340
F
341
32
342
32
343
28C
371
    -1
372
    -1
  0
DIMSTYLE
105
2EB
330
A
100
AcDbSymbolTableRecord
100
AcDbDimStyleTableRecord
  2
JIS-KURODA
 70
     0
  4
"
 41
2.5
 42
1.0
 43
10.0
 44
1.0
 47
0.1
 48
0.1
 73
     0
 74
     0
 77
     3
 78
     8
 79
     2
140
3.2
141
0.0
143
0.0393701
146
0.71
147
1.5
172
     1
174
     1
176
     7
177
     7
178
     7
271
     2
272
     2
283
     0
284
     8
340
F
341
2C7
342
2C7
371
    -1
372
    -1
  0
DIMSTYLE
105
2EC
330
A
100
AcDbSymbolTableRecord
100
AcDbDimStyleTableRecord
  2
JIS-KURODA$2
 70
     0
  4
"
 41
2.5
 42
1.0
 43
10.0
 44
1.0
 47
0.1
 48
0.1
 73
     0
 74
     0
 77
     3
 78
     8
 79
     2
140
3.2
141
0.0
143
0.0393701
146
0.71
147
1.5
172
     1
174
     1
176
     7
177
     7
178
     7
271
     2
272
     2
283
     0
284
     8
340
F
341
2C7
342
2C7
371
    -1
372
    -1
  0
DIMSTYLE
105
2ED
330
A
100
AcDbSymbolTableRecord
100
AcDbDimStyleTableRecord
  2
JIS-KURODA$3
 70
     0
  4
"
 41
2.5
 42
1.0
 43
10.0
 44
1.0
 47
0.1
 48
0.1
 73
     0
 74
     0
 77
     3
 78
     8
 79
     2
140
3.2
141
0.0
143
0.0393701
146
0.71
147
1.5
172
     1
176
     7
177
     7
178
     7
271
     2
272
     2
283
     0
284
     8
288
     1
289
     2
340
F
341
32
342
2C7
371
    -1
372
    -1
  0
DIMSTYLE
105
2EE
330
A
100
AcDbSymbolTableRecord
100
AcDbDimStyleTableRecord
  2
JIS-KURODA$4
 70
     0
  4
"
 41
2.5
 42
1.0
 43
10.0
 44
1.0
 47
0.1
 48
0.1
 73
     0
 77
     3
 78
     8
 79
     2
140
3.2
141
0.0
143
0.0393701
146
0.71
147
1.5
173
     1
176
     7
177
     7
178
     7
271
     2
272
     2
279
     1
283
     0
284
     8
288
     1
289
     0
340
F
341
32
343
32
344
2C7
371
    -1
372
    -1
  0
DIMSTYLE
105
2EF
330
A
100
AcDbSymbolTableRecord
100
AcDbDimStyleTableRecord
  2
JIS-KURODA$6
 70
     0
  4
"
 41
2.5
 42
1.0
 43
10.0
 44
1.0
 47
0.1
 48
0.1
 73
     0
 74
     0
 78
     8
 79
     2
140
3.2
141
0.0
143
0.0393701
146
0.71
147
1.5
172
     1
176
     7
177
     7
178
     7
271
     2
272
     2
279
     1
283
     0
284
     8
340
F
341
32
342
32
371
    -1
372
    -1
  0
DIMSTYLE
105
2F0
330
A
100
AcDbSymbolTableRecord
100
AcDbDimStyleTableRecord
  2
JIS-KURODA$7
 70
     0
  4
"
 41
2.5
 42
1.0
 43
10.0
 44
1.0
 47
0.1
 48
0.1
 73
     0
 74
     0
 77
     3
 78
     8
 79
     2
140
4.000000000000003
141
0.0
143
0.0393701
146
0.71
147
1.5
172
     1
176
     7
177
     7
178
     7
271
     2
272
     2
279
     1
283
     0
284
     8
340
F
341
2C7
342
32
371
    -1
372
    -1
  0
DIMSTYLE
105
2F1
330
A
100
AcDbSymbolTableRecord
100
AcDbDimStyleTableRecord
  2
JIS-KURODA$SF
 70
     0
  4
"
 41
2.5
 42
1.0
 43
10.0
 44
1.0
 47
0.1
 48
0.1
 73
     0
 74
     0
 75
     1
 76
     1
 77
     3
 78
     8
 79
     2
140
3.5
141
0.0
143
0.0393701
146
0.71
147
1.5
172
     1
176
   256
177
   256
178
     7
271
     2
272
     3
274
     4
283
     0
284
     8
340
F
341
32
342
32
343
32
344
32
371
    -1
372
    -1
  0
DIMSTYLE
105
2F2
330
A
100
AcDbSymbolTableRecord
100
AcDbDimStyleTableRecord
  2
JIS-KURODA$SH
 70
     0
  4
"
 41
2.5
 42
1.0
 43
10.0
 44
1.0
 47
0.1
 48
0.1
 73
     0
 74
     0
 75
     1
 76
     1
 77
     3
 78
     8
 79
     2
140
3.5
141
0.0
143
0.0393701
144
2.0
146
0.71
147
1.5
172
     1
173
     1
176
   256
177
   256
178
     7
271
     2
272
     3
274
     4
283
     0
284
     8
340
F
341
32
342
32
343
28C
344
32
371
    -1
372
    -1
  0
DIMSTYLE
105
3D4
330
A
100
AcDbSymbolTableRecord
100
AcDbDimStyleTableRecord
  2
JIS-KURODA$0
 70
     0
  4
"
 41
2.5
 42
1.0
 43
10.0
 44
1.0
 47
0.1
 48
0.1
 73
     0
 74
     0
 77
     3
 78
     8
 79
     2
140
3.2
141
0.0
143
0.0393701
146
0.71
147
1.5
172
     1
174
     1
176
     7
177
     7
178
     7
271
     2
272
     2
283
     0
284
     8
340
F
341
2C7
342
2C7
371
    -1
372
    -1
1001
ACAD_DSTYLE_DIMARC_LENGTH_SYMBOL
1070
   379
1070
     1
1001
ACAD_DSTYLE_DIMJOGGED_JOGANGLE_SYMBOL
1070
   384
1040
0.7853981633974483
  0
ENDTAB
  0
TABLE
  2
BLOCK_RECORD
  5
1
330
0
100
AcDbSymbolTable
 70
     4
  0
BLOCK_RECORD
  5
18
102
{ACAD_XDICTIONARY
360
207
102
}
330
1
100
AcDbSymbolTableRecord
100
AcDbBlockTableRecord
  2
*MODEL_SPACE
340
60
  0
BLOCK_RECORD
  5
15
102
{ACAD_XDICTIONARY
360
205
102
}
330
1
100
AcDbSymbolTableRecord
100
AcDbBlockTableRecord
  2
*PAPER_SPACE
340
61
  0
BLOCK_RECORD
  5
32
330
1
100
AcDbSymbolTableRecord
100
AcDbBlockTableRecord
  2
_Open30
340
0
  0
BLOCK_RECORD
  5
28C
330
1
100
AcDbSymbolTableRecord
100
AcDbBlockTableRecord
  2
GENAXEH
340
0
  0
BLOCK_RECORD
  5
2C7
330
1
100
AcDbSymbolTableRecord
100
AcDbBlockTableRecord
  2
_Open
340
0
  0
ENDTAB
  0
ENDSEC
  0
SECTION
  2
BLOCKS
  0
BLOCK
  5
19
330
18
100
AcDbEntity
  8
0
100
AcDbBlockBegin
  2
*MODEL_SPACE
 70
     0
 10
0.0
 20
0.0
 30
0.0
  3
*MODEL_SPACE
  1

  0
ENDBLK
  5
1A
330
18
100
AcDbEntity
  8
0
100
AcDbBlockEnd
  0
BLOCK
  5
16
330
15
100
AcDbEntity
 67
     1
  8
0
100
AcDbBlockBegin
  2
*PAPER_SPACE
 70
     0
 10
0.0
 20
0.0
 30
0.0
  3
*PAPER_SPACE
  1

  0
ENDBLK
  5
17
330
15
100
AcDbEntity
 67
     1
  8
0
100
AcDbBlockEnd
  0
BLOCK
  5
9A5
330
32
100
AcDbEntity
  8
0
100
AcDbBlockBegin
  2
_Open30
 70
     0
 10
0.0
 20
0.0
 30
0.0
  3
_Open30
  1

  0
LINE
  5
9A6
330
32
100
AcDbEntity
  8
0
 62
     0
370
    -2
100
AcDbLine
 10
-1.0
 20
0.26794919
 30
0.0
 11
0.0
 21
0.0
 31
0.0
  0
LINE
  5
9A7
330
32
100
AcDbEntity
  8
0
 62
     0
370
    -2
100
AcDbLine
 10
0.0
 20
0.0
 30
0.0
 11
-1.0
 21
-0.26794919
 31
0.0
  0
LINE
  5
9A8
330
32
100
AcDbEntity
  8
0
 62
     0
370
    -2
100
AcDbLine
 10
0.0
 20
0.0
 30
0.0
 11
-1.0
 21
0.0
 31
0.0
  0
ENDBLK
  5
9A9
330
32
100
AcDbEntity
  8
0
100
AcDbBlockEnd
  0
BLOCK
  5
95F
330
28C
100
AcDbEntity
  8
0
100
AcDbBlockBegin
  2
GENAXEH
 70
     0
 10
0.0
 20
0.0
 30
0.0
  3
GENAXEH
  1

  0
LINE
  5
960
330
28C
100
AcDbEntity
  8
0
100
AcDbLine
 10
-1.0
 20
0.0
 30
0.0
 11
1.0
 21
0.0
 31
0.0
  0
ENDBLK
  5
961
330
28C
100
AcDbEntity
  8
0
100
AcDbBlockEnd
  0
BLOCK
  5
99A
330
2C7
100
AcDbEntity
  8
0
100
AcDbBlockBegin
  2
_Open
 70
     0
 10
0.0
 20
0.0
 30
0.0
  3
_Open
  1

  0
LINE
  5
99B
330
2C7
100
AcDbEntity
  8
outline
 62
     0
370
    -2
100
AcDbLine
 10
-1.0
 20
0.1666666666666666
 30
0.0
 11
0.0
 21
0.0
 31
0.0
  0
LINE
  5
99D
330
2C7
100
AcDbEntity
  8
outline
 62
     0
370
    -2
100
AcDbLine
 10
-1.0
 20
-0.1666666666666666
 30
0.0
 11
0.0
 21
0.0
 31
0.0
  0
LINE
  5
99E
330
2C7
100
AcDbEntity
  8
outline
 62
     0
370
    -2
100
AcDbLine
 10
0.0
 20
0.0
 30
0.0
 11
-1.0
 21
0.0
 31
0.0
  0
ENDBLK
  5
99F
330
2C7
100
AcDbEntity
  8
0
100
AcDbBlockEnd
  0
ENDSEC
  0
SECTION
  2
ENTITIES
  0
LINE
  5
76
330
18
100
AcDbEntity
  8
PV0001_1
  6
Continuous
370
    50
100
AcDbLine
 10
-90.0
 20
138.5
 30
0.0
 11
501.0
 21
138.5
 31
0.0
  0
LINE
  5
77
330
18
100
AcDbEntity
  8
PV0001_1
  6
Continuous
370
    50
100
AcDbLine
 10
-90.0
 20
-138.5
 30
0.0
 11
501.0
 21
-138.5
 31
0.0
  0
LINE
  5
78
330
18
100
AcDbEntity
  8
PV0001_1
  6
Continuous
370
    50
100
AcDbLine
 10
-90.0
 20
138.5
 30
0.0
 11
-90.0
 21
-138.5
 31
0.0
  0
LINE
  5
79
330
18
100
AcDbEntity
  8
PV0001_1
  6
Continuous
 48
0.5
370
    50
100
AcDbLine
 10
-87.0
 20
130.10000610351
 30
0.0
 11
-85.399993896484
 21
130.10000610351
 31
0.0
  0
LINE
  5
7A
330
18
100
AcDbEntity
  8
PV0001_1
  6
Continuous
 48
0.5
370
    50
100
AcDbLine
 10
-87.0
 20
134.89999389648
 30
0.0
 11
-87.0
 21
130.10000610351
 31
0.0
  0
LINE
  5
7B
330
18
100
AcDbEntity
  8
PV0001_1
  6
Continuous
 48
0.5
370
    50
100
AcDbLine
 10
-87.0
 20
134.89999389648
 30
0.0
 11
-85.399993896484
 21
134.89999389648
 31
0.0
  0
LINE
  5
7C
330
18
100
AcDbEntity
  8
PV0001_1
  6
Continuous
 48
0.5
370
    50
100
AcDbLine
 10
-85.399993896484
 20
134.89999389648
 30
0.0
 11
-85.399993896484
 21
133.30000305175
 31
0.0
  0
LINE
  5
7D
330
18
100
AcDbEntity
  8
PV0001_1
  6
Continuous
 48
0.5
370
    50
100
AcDbLine
 10
-80.399993896484
 20
134.89999389648
 30
0.0
 11
-80.399993896484
 21
131.30000305175
 31
0.0
  0
LINE
  5
7E
330
18
100
AcDbEntity
  8
PV0001_1
  6
Continuous
 48
0.5
370
    50
100
AcDbLine
 10
-79.199996948242
 20
130.10000610351
 30
0.0
 11
-75.399993896484
 21
130.10000610351
 31
0.0
  0
LINE
  5
7F
330
18
100
AcDbEntity
  8
PV0001_1
  6
Continuous
 48
0.5
370
    50
100
AcDbLine
 10
-80.399993896484
 20
134.89999389648
 30
0.0
 11
-79.0
 21
134.89999389648
 31
0.0
  0
LINE
  5
80
330
18
100
AcDbEntity
  8
PV0001_1
  6
Continuous
 48
0.5
370
    50
100
AcDbLine
 10
-85.199996948242
 20
132.5
 30
0.0
 11
-84.30000305175701
 21
132.5
 31
0.0
  0
LINE
  5
81
330
18
100
AcDbEntity
  8
PV0001_1
  6
Continuous
 48
0.5
370
    50
100
AcDbLine
 10
-85.199996948242
 20
133.10000610351
 30
0.0
 11
-84.29782104492099
 21
133.10000610351
 31
0.0
  0
LINE
  5
82
330
18
100
AcDbEntity
  8
PV0001_1
  6
Continuous
 48
0.5
370
    50
100
AcDbLine
 10
-84.14004516601499
 20
132.41998291015
 30
0.0
 11
-82.40003967285097
 21
130.09997558593
 31
0.0
  0
LINE
  5
83
330
18
100
AcDbEntity
  8
PV0001_1
  6
Continuous
 48
0.5
370
    50
100
AcDbLine
 10
-82.67945098876898
 20
132.75942993164
 30
0.0
 11
-80.39997863769498
 21
130.10003662109
 31
0.0
  0
LINE
  5
84
330
18
100
AcDbEntity
  8
PV0001_1
  6
Continuous
 48
0.5
370
    50
100
AcDbLine
 10
-84.13994598388597
 20
133.17721557617
 30
0.0
 11
-82.800003051757
 21
134.90000915527
 31
0.0
  0
LINE
  5
85
330
18
100
AcDbEntity
  8
PV0001_1
  6
Continuous
 48
0.5
370
    50
100
AcDbLine
 10
-82.669021606445
 20
133.03092956542
 30
0.0
 11
-80.799972534179
 21
134.89997863769
 31
0.0
  0
LINE
  5
86
330
18
100
AcDbEntity
  8
PV0001_1
  6
Continuous
 48
0.5
370
    50
100
AcDbLine
 10
-82.39999389648401
 20
130.10000610351
 30
0.0
 11
-80.399993896484
 21
130.10000610351
 31
0.0
  0
LINE
  5
87
330
18
100
AcDbEntity
  8
PV0001_1
  6
Continuous
 48
0.5
370
    50
100
AcDbLine
 10
-82.800003051757
 20
134.89999389648
 30
0.0
 11
-80.80000305175699
 21
134.89999389648
 31
0.0
  0
LINE
  5
88
330
18
100
AcDbEntity
  8
PV0001_1
  6
Continuous
 48
0.5
370
    50
100
AcDbLine
 10
-85.399993896484
 20
132.30000305175
 30
0.0
 11
-85.399993896484
 21
130.10000610351
 31
0.0
  0
LINE
  5
89
330
18
100
AcDbEntity
  8
PV0001_1
  6
Continuous
 48
0.5
370
    50
100
AcDbLine
 10
-74.199996948242
 20
134.90000915527
 30
0.0
 11
-74.199996948242
 21
131.30000305175
 31
0.0
  0
LINE
  5
8A
330
18
100
AcDbEntity
  8
PV0001_1
  6
Continuous
 48
0.5
370
    50
100
AcDbLine
 10
-79.0
 20
134.89999389648
 30
0.0
 11
-79.0
 21
131.5
 31
0.0
  0
LINE
  5
8B
330
18
100
AcDbEntity
  8
PV0001_1
  6
Continuous
 48
0.5
370
    50
100
AcDbLine
 10
-75.600006103515
 20
134.90000915527
 30
0.0
 11
-75.600006103515
 21
131.5
 31
0.0
  0
LINE
  5
8C
330
18
100
AcDbEntity
  8
PV0001_1
  6
Continuous
 48
0.5
370
    50
100
AcDbLine
 10
-78.39999389648401
 20
130.89999389648
 30
0.0
 11
-76.199996948242
 21
130.89999389648
 31
0.0
  0
LINE
  5
8D
330
18
100
AcDbEntity
  8
PV0001_1
  6
Continuous
 48
0.5
370
    50
100
AcDbLine
 10
-75.600006103515
 20
134.89999389648
 30
0.0
 11
-74.199996948242
 21
134.89999389648
 31
0.0
  0
LINE
  5
8E
330
18
100
AcDbEntity
  8
PV0001_1
  6
Continuous
 48
0.5
370
    50
100
AcDbLine
 10
-73.699996948242
 20
134.89999389648
 30
0.0
 11
-69.0
 21
134.89999389648
 31
0.0
  0
LINE
  5
8F
330
18
100
AcDbEntity
  8
PV0001_1
  6
Continuous
 48
0.5
370
    50
100
AcDbLine
 10
-73.699996948242
 20
130.10000610351
 30
0.0
 11
-72.10000610351499
 21
130.10000610351
 31
0.0
  0
LINE
  5
90
330
18
100
AcDbEntity
  8
PV0001_1
  6
Continuous
 48
0.5
370
    50
100
AcDbLine
 10
-73.699996948242
 20
134.90000915527
 30
0.0
 11
-73.699996948242
 21
130.10000610351
 31
0.0
  0
LINE
  5
91
330
18
100
AcDbEntity
  8
PV0001_1
  6
Continuous
 48
0.5
370
    50
100
AcDbLine
 10
-69.199996948242
 20
133.70001220703
 30
0.0
 11
-69.199996948242
 21
133.0
 31
0.0
  0
LINE
  5
92
330
18
100
AcDbEntity
  8
PV0001_1
  6
Continuous
 48
0.5
370
    50
100
AcDbLine
 10
-72.10000610351499
 20
134.10000610351
 30
0.0
 11
-72.10000610351499
 21
132.60000610351
 31
0.0
  0
LINE
  5
93
330
18
100
AcDbEntity
  8
PV0001_1
  6
Continuous
 48
0.5
370
    50
100
AcDbLine
 10
-71.699996948242
 20
131.69999694824
 30
0.0
 11
-69.800003051757
 21
131.69999694824
 31
0.0
  0
LINE
  5
94
330
18
100
AcDbEntity
  8
PV0001_1
  6
Continuous
 48
0.5
370
    50
100
AcDbLine
 10
-71.899993896484
 20
134.30000305175
 30
0.0
 11
-69.800003051757
 21
134.30000305175
 31
0.0
  0
LINE
  5
95
330
18
100
AcDbEntity
  8
PV0001_1
  6
Continuous
 48
0.5
370
    50
100
AcDbLine
 10
-71.899993896484
 20
132.39999389648
 30
0.0
 11
-69.800003051757
 21
132.39999389648
 31
0.0
  0
LINE
  5
96
330
18
100
AcDbEntity
  8
PV0001_1
  6
Continuous
 48
0.5
370
    50
100
AcDbLine
 10
-69.199996948242
 20
130.10000610351
 30
0.0
 11
-67.5
 21
130.10000610351
 31
0.0
  0
LINE
  5
97
330
18
100
AcDbEntity
  8
PV0001_1
  6
Continuous
 48
0.5
370
    50
100
AcDbLine
 10
-72.10000610351499
 20
131.30000305175
 30
0.0
 11
-72.10000610351499
 21
130.10000610351
 31
0.0
  0
LINE
  5
98
330
18
100
AcDbEntity
  8
PV0001_1
  6
Continuous
 48
0.5
370
    50
100
AcDbLine
 10
-65.800003051757
 20
130.10000610351
 30
0.0
 11
-62.0
 21
130.10000610351
 31
0.0
  0
LINE
  5
99
330
18
100
AcDbEntity
  8
PV0001_1
  6
Continuous
 48
0.5
370
    50
100
AcDbLine
 10
-64.800003051757
 20
134.30000305175
 30
0.0
 11
-63.0
 21
134.30000305175
 31
0.0
  0
LINE
  5
9A
330
18
100
AcDbEntity
  8
PV0001_1
  6
Continuous
 48
0.5
370
    50
100
AcDbLine
 10
-65.800003051757
 20
134.89999389648
 30
0.0
 11
-62.0
 21
134.89999389648
 31
0.0
  0
LINE
  5
9B
330
18
100
AcDbEntity
  8
PV0001_1
  6
Continuous
 48
0.5
370
    50
100
AcDbLine
 10
-69.199996948242
 20
131.10000610351
 30
0.0
 11
-69.199996948242
 21
130.10000610351
 31
0.0
  0
LINE
  5
9C
330
18
100
AcDbEntity
  8
PV0001_1
  6
Continuous
 48
0.5
370
    50
100
AcDbLine
 10
-67.199996948242
 20
133.5
 30
0.0
 11
-67.199996948242
 21
131.5
 31
0.0
  0
LINE
  5
9D
330
18
100
AcDbEntity
  8
PV0001_1
  6
Continuous
 48
0.5
370
    50
100
AcDbLine
 10
-60.60000610351499
 20
133.5
 30
0.0
 11
-60.60000610351499
 21
131.5
 31
0.0
  0
LINE
  5
9E
330
18
100
AcDbEntity
  8
PV0001_1
  6
Continuous
 48
0.5
370
    50
100
AcDbLine
 10
-60.20634460449199
 20
130.10000610351
 30
0.0
 11
-55.199996948242
 21
130.10000610351
 31
0.0
  0
LINE
  5
9F
330
18
100
AcDbEntity
  8
PV0001_1
  6
Continuous
 48
0.5
370
    50
100
AcDbLine
 10
-58.39999389648401
 20
134.30000305175
 30
0.0
 11
-56.19999694824199
 21
134.30000305175
 31
0.0
  0
LINE
  5
A0
330
18
100
AcDbEntity
  8
PV0001_1
  6
Continuous
 48
0.5
370
    50
100
AcDbLine
 10
-60.199996948242
 20
134.89999389648
 30
0.0
 11
-55.199996948242
 21
134.89999389648
 31
0.0
  0
LINE
  5
A1
330
18
100
AcDbEntity
  8
PV0001_1
  6
Continuous
 48
0.5
370
    50
100
AcDbLine
 10
-64.800003051757
 20
130.89999389648
 30
0.0
 11
-63.0
 21
130.89999389648
 31
0.0
  0
LINE
  5
A2
330
18
100
AcDbEntity
  8
PV0001_1
  6
Continuous
 48
0.5
370
    50
100
AcDbLine
 10
-65.600006103515
 20
133.5
 30
0.0
 11
-65.600006103515
 21
131.70001220703
 31
0.0
  0
LINE
  5
A3
330
18
100
AcDbEntity
  8
PV0001_1
  6
Continuous
 48
0.5
370
    50
100
AcDbLine
 10
-62.19999694824199
 20
133.5
 30
0.0
 11
-62.19999694824199
 21
131.70001220703
 31
0.0
  0
LINE
  5
A4
330
18
100
AcDbEntity
  8
PV0001_1
  6
Continuous
 48
0.5
370
    50
100
AcDbLine
 10
-53.800003051757
 20
133.50001525878
 30
0.0
 11
-53.800003051757
 21
131.50001525878
 31
0.0
  0
LINE
  5
A5
330
18
100
AcDbEntity
  8
PV0001_1
  6
Continuous
 48
0.5
370
    50
100
AcDbLine
 10
-60.199996948242
 20
134.90000915527
 30
0.0
 11
-60.199996948242
 21
130.10000610351
 31
0.0
  0
LINE
  5
A6
330
18
100
AcDbEntity
  8
PV0001_1
  6
Continuous
 48
0.5
370
    50
100
AcDbLine
 10
-58.60000610351499
 20
134.10000610351
 30
0.0
 11
-58.60000610351499
 21
131.10000610351
 31
0.0
  0
LINE
  5
A7
330
18
100
AcDbEntity
  8
PV0001_1
  6
Continuous
 48
0.5
370
    50
100
AcDbLine
 10
-55.399993896484
 20
133.50001525878
 30
0.0
 11
-55.399993896484
 21
131.70001220703
 31
0.0
  0
LINE
  5
A8
330
18
100
AcDbEntity
  8
PV0001_1
  6
Continuous
 48
0.5
370
    50
100
AcDbLine
 10
-58.39999389648401
 20
130.89999389648
 30
0.0
 11
-56.19999694824199
 21
130.89999389648
 31
0.0
  0
LINE
  5
A9
330
18
100
AcDbEntity
  8
PV0001_1
  6
Continuous
 48
0.5
370
    50
100
AcDbLine
 10
-53.800003051757
 20
130.10000610351
 30
0.0
 11
-52.19999694824199
 21
130.10000610351
 31
0.0
  0
LINE
  5
AA
330
18
100
AcDbEntity
  8
PV0001_1
  6
Continuous
 48
0.5
370
    50
100
AcDbLine
 10
-50.65585327148401
 20
134.30000305175
 30
0.0
 11
-49.744140625
 21
134.30000305175
 31
0.0
  0
LINE
  5
AB
330
18
100
AcDbEntity
  8
PV0001_1
  6
Continuous
 48
0.5
370
    50
100
AcDbLine
 10
-51.800003051757
 20
134.89999389648
 30
0.0
 11
-48.60000610351499
 21
134.89999389648
 31
0.0
  0
LINE
  5
AC
330
18
100
AcDbEntity
  8
PV0001_1
  6
Continuous
 48
0.5
370
    50
100
AcDbLine
 10
-51.72250366210899
 20
131.10000610351
 30
0.0
 11
-48.677490234375
 21
131.10000610351
 31
0.0
  0
LINE
  5
AD
330
18
100
AcDbEntity
  8
PV0001_1
  6
Continuous
 48
0.5
370
    50
100
AcDbLine
 10
-51.322509765625
 20
131.89999389648
 30
0.0
 11
-50.32839965820301
 21
131.89999389648
 31
0.0
  0
LINE
  5
AE
330
18
100
AcDbEntity
  8
PV0001_1
  6
Continuous
 48
0.5
370
    50
100
AcDbLine
 10
-52.199924468994
 20
130.09999084472
 30
0.0
 11
-51.912174224853
 21
130.96322631835
 31
0.0
  0
LINE
  5
AF
330
18
100
AcDbEntity
  8
PV0001_1
  6
Continuous
 48
0.5
370
    50
100
AcDbLine
 10
-49.554355621337
 20
134.16328430175
 30
0.0
 11
-48.887687683105
 21
132.16328430175
 31
0.0
  0
LINE
  5
B0
330
18
100
AcDbEntity
  8
PV0001_1
  6
Continuous
 48
0.5
370
    50
100
AcDbLine
 10
-51.800006866455
 20
134.90000915527
 30
0.0
 11
-53.800010681152
 21
130.10000610351
 31
0.0
  0
LINE
  5
B1
330
18
100
AcDbEntity
  8
PV0001_1
  6
Continuous
 48
0.5
370
    50
100
AcDbLine
 10
-48.600002288818
 20
134.89999389648
 30
0.0
 11
-46.60000610351499
 21
130.09999084472
 31
0.0
  0
LINE
  5
B2
330
18
100
AcDbEntity
  8
PV0001_1
  6
Continuous
 48
0.5
370
    50
100
AcDbLine
 10
-51.512172698974
 20
132.16323852539
 30
0.0
 11
-50.845508575439
 21
134.1632232666
 31
0.0
  0
LINE
  5
B3
330
18
100
AcDbEntity
  8
PV0001_1
  6
Continuous
 48
0.5
370
    50
100
AcDbLine
 10
-48.487682342529
 20
130.96327209472
 30
0.0
 11
-48.19993972778298
 21
130.10003662109
 31
0.0
  0
LINE
  5
B4
330
18
100
AcDbEntity
  8
PV0001_1
  6
Continuous
 48
0.5
370
    50
100
AcDbLine
 10
-48.199996948242
 20
130.10000610351
 30
0.0
 11
-46.60000610351499
 21
130.10000610351
 31
0.0
  0
LINE
  5
B5
330
18
100
AcDbEntity
  8
PV0001_1
  6
Continuous
 48
0.5
370
    50
100
AcDbLine
 10
-50.32839965820301
 20
131.89999389648
 30
0.0
 11
-49.07748413085901
 21
131.89999389648
 31
0.0
  0
LINE
  5
B6
330
18
100
AcDbEntity
  8
PV0001_1
  6
Continuous
 48
0.5
370
    50
100
AcDbLine
 10
-43.60000610351499
 20
138.5
 30
0.0
 11
-43.60000610351499
 21
126.5
 31
0.0
  0
LINE
  5
B7
330
18
100
AcDbEntity
  8
PV0001_1
  6
Continuous
370
    50
100
AcDbLine
 10
-90.0
 20
126.5
 30
0.0
 11
169.30798339843
 21
126.5
 31
0.0
  0
LINE
  5
B8
330
18
100
AcDbEntity
  8
PV0001_1
  6
Continuous
 48
0.5
370
    50
100
AcDbLine
 10
18.399993896484
 20
138.5
 30
0.0
 11
18.399993896484
 21
126.5
 31
0.0
  0
LINE
  5
B9
330
18
100
AcDbEntity
  8
PV0001_1
  6
Continuous
 48
0.5
370
    50
100
AcDbLine
 10
142.39999389648
 20
138.5
 30
0.0
 11
142.39999389648
 21
126.5
 31
0.0
  0
LINE
  5
BA
330
18
100
AcDbEntity
  8
PV0001_1
  6
CENTER2
 48
0.5
370
    25
100
AcDbLine
 10
145.55735778808
 20
132.5
 30
0.0
 11
153.14462280273
 21
132.5
 31
0.0
  0
LINE
  5
BB
330
18
100
AcDbEntity
  8
PV0001_1
  6
CENTER2
 48
0.5
370
    25
100
AcDbLine
 10
149.39999389648
 20
136.44480895996
 30
0.0
 11
149.39999389648
 21
128.76712036132
 31
0.0
  0
LINE
  5
BC
330
18
100
AcDbEntity
  8
PV0001_1
  6
CENTER2
 48
0.5
370
    25
100
AcDbLine
 10
157.48554992675
 20
132.5
 30
0.0
 11
165.9214477539
 21
132.5
 31
0.0
  0
LINE
  5
BD
330
18
100
AcDbEntity
  8
PV0001_1
  6
Continuous
 48
0.5
370
   100
100
AcDbLine
 10
158.32803344726
 20
134.11965942382
 30
0.0
 11
164.80804443359
 21
135.19966125488
 31
0.0
  0
LINE
  5
BE
330
18
100
AcDbEntity
  8
PV0001_1
  6
Continuous
 48
0.5
370
   100
100
AcDbLine
 10
158.3279724121
 20
134.11999511718
 30
0.0
 11
158.3279724121
 21
130.87995910644
 31
0.0
  0
LINE
  5
BF
330
18
100
AcDbEntity
  8
PV0001_1
  6
Continuous
 48
0.5
370
   100
100
AcDbLine
 10
158.32800292968
 20
130.87962341308
 30
0.0
 11
164.80799865722
 21
129.79962158203
 31
0.0
  0
LINE
  5
C0
330
18
100
AcDbEntity
  8
PV0001_1
  6
Continuous
 48
0.5
370
   100
100
AcDbLine
 10
164.80798339843
 20
135.19999694824
 30
0.0
 11
164.80798339843
 21
129.80000305175
 31
0.0
  0
LINE
  5
C1
330
18
100
AcDbEntity
  8
PV0001_1
  6
Continuous
 48
0.5
370
    50
100
AcDbLine
 10
169.30798339843
 20
138.5
 30
0.0
 11
169.30798339843
 21
126.5
 31
0.0
  0
LINE
  5
C2
330
18
100
AcDbEntity
  8
PV0001_1
  6
Continuous
370
    50
100
AcDbLine
 10
501.0
 20
138.5
 30
0.0
 11
501.0
 21
-138.5
 31
0.0
  0
LINE
  5
C3
330
18
100
AcDbEntity
  8
PV0001_1
  6
CENTER2
370
    25
100
AcDbLine
 10
-68.25757598876901
 20
0.0
 30
0.0
 11
68.25746154785099
 21
0.0
 31
0.0
  0
LINE
  5
CC
330
18
100
AcDbEntity
  8
PV0001_1
  6
CENTER2
370
    25
100
AcDbLine
 10
184.2222290039
 20
0.0
 30
0.0
 11
405.8119901217268
 21
0.0000000000000018
 31
0.0
  0
LINE
  5
E0
330
18
100
AcDbEntity
  8
PV0001_1
  6
Continuous
370
    50
100
AcDbLine
 10
195.33332824707
 20
-18.0
 30
0.0
 11
262.0
 21
-18.0
 31
0.0
  0
LINE
  5
E1
330
18
100
AcDbEntity
  8
PV0001_1
  6
Continuous
370
    50
100
AcDbLine
 10
195.33332824707
 20
18.0
 30
0.0
 11
262.0
 21
18.0
 31
0.0
  0
LINE
  5
E2
330
18
100
AcDbEntity
  8
PV0001_1
  6
Continuous
370
    50
100
AcDbLine
 10
324.0
 20
-18.0
 30
0.0
 11
390.66668701171
 21
-18.0
 31
0.0
  0
LINE
  5
E3
330
18
100
AcDbEntity
  8
PV0001_1
  6
Continuous
370
    50
100
AcDbLine
 10
324.0
 20
18.0
 30
0.0
 11
390.66668701171
 21
18.0
 31
0.0
  0
LINE
  5
E4
330
18
100
AcDbEntity
  8
PV0001_1
  6
Continuous
370
    25
100
AcDbLine
 10
324.0
 20
-15.37549972534099
 30
0.0
 11
390.66668701171
 21
-15.37549972534099
 31
0.0
  0
LINE
  5
E5
330
18
100
AcDbEntity
  8
PV0001_1
  6
Continuous
370
    25
100
AcDbLine
 10
324.0
 20
15.375499725341
 30
0.0
 11
390.66668701171
 21
15.375499725341
 31
0.0
  0
LINE
  5
E6
330
18
100
AcDbEntity
  8
PV0001_1
  6
Continuous
370
    25
100
AcDbLine
 10
195.33332824707
 20
15.375499725341
 30
0.0
 11
262.0
 21
15.375499725341
 31
0.0
  0
LINE
  5
E7
330
18
100
AcDbEntity
  8
PV0001_1
  6
Continuous
370
    25
100
AcDbLine
 10
195.33332824707
 20
-15.375499725341
 30
0.0
 11
262.0
 21
-15.375499725341
 31
0.0
  0
ARC
  5
15A
330
18
100
AcDbEntity
  8
PV0001_1
  6
Continuous
 48
0.5
370
    50
100
AcDbCircle
 10
-82.527618408203
 20
132.88954162597
 30
0.0
 40
0.2000000029802
100
AcDbArc
 50
135.0000549831359
 51
220.6012585677736
  0
ARC
  5
15B
330
18
100
AcDbEntity
  8
PV0001_1
  6
Continuous
 48
0.5
370
    50
100
AcDbCircle
 10
-84.29782104492099
 20
133.30000305175
 30
0.0
 40
0.2000000029802
100
AcDbArc
 50
270.0000179860904
 51
322.1249959578259
  0
ARC
  5
15C
330
18
100
AcDbEntity
  8
PV0001_1
  6
Continuous
 48
0.5
370
    50
100
AcDbCircle
 10
-84.30000305175701
 20
132.30000305175
 30
0.0
 40
0.2000000029802
100
AcDbArc
 50
36.86990755486351
 51
89.99998201390965
  0
ARC
  5
15D
330
18
100
AcDbEntity
  8
PV0001_1
  6
Continuous
 48
0.5
370
    50
100
AcDbCircle
 10
-85.199996948242
 20
133.30000305175
 30
0.0
 40
0.2000000029802
100
AcDbArc
 50
179.9999776881987
 51
270.0000280040004
  0
ARC
  5
15E
330
18
100
AcDbEntity
  8
PV0001_1
  6
Continuous
 48
0.5
370
    50
100
AcDbCircle
 10
-85.199996948242
 20
132.30000305175
 30
0.0
 40
0.2000000029802
100
AcDbArc
 50
89.99998201390965
 51
179.9999640278191
  0
ARC
  5
15F
330
18
100
AcDbEntity
  8
PV0001_1
  6
Continuous
 48
0.5
370
    50
100
AcDbCircle
 10
-79.199996948242
 20
131.30000305175
 30
0.0
 40
1.2000000476837
100
AcDbArc
 50
179.9999776881987
 51
270.0000280040004
  0
ARC
  5
160
330
18
100
AcDbEntity
  8
PV0001_1
  6
Continuous
 48
0.5
370
    50
100
AcDbCircle
 10
-75.399993896484
 20
131.30000305175
 30
0.0
 40
1.2000000476837
100
AcDbArc
 50
270.0000179860904
 51
0.0
  0
ARC
  5
161
330
18
100
AcDbEntity
  8
PV0001_1
  6
Continuous
 48
0.5
370
    50
100
AcDbCircle
 10
-76.199996948242
 20
131.5
 30
0.0
 40
0.6000000238419
100
AcDbArc
 50
270.0000179860904
 51
0.0
  0
ARC
  5
162
330
18
100
AcDbEntity
  8
PV0001_1
  6
Continuous
 48
0.5
370
    50
100
AcDbCircle
 10
-78.39999389648401
 20
131.5
 30
0.0
 40
0.6000000238419
100
AcDbArc
 50
179.9999776881987
 51
270.0000280040004
  0
ARC
  5
163
330
18
100
AcDbEntity
  8
PV0001_1
  6
Continuous
 48
0.5
370
    50
100
AcDbCircle
 10
-69.5
 20
130.10000610351
 30
0.0
 40
2.0
100
AcDbArc
 50
0.0
 51
54.42673123145972
  0
ARC
  5
164
330
18
100
AcDbEntity
  8
PV0001_1
  6
Continuous
 48
0.5
370
    50
100
AcDbCircle
 10
-69.0
 20
133.40000915527
 30
0.0
 40
1.5
100
AcDbArc
 50
0.0
 51
89.99998201390965
  0
ARC
  5
165
330
18
100
AcDbEntity
  8
PV0001_1
  6
Continuous
 48
0.5
370
    50
100
AcDbCircle
 10
-69.0
 20
133.40000915527
 30
0.0
 40
1.5
100
AcDbArc
 50
297.304990098971
 51
0.0
  0
ARC
  5
166
330
18
100
AcDbEntity
  8
PV0001_1
  6
Continuous
 48
0.5
370
    50
100
AcDbCircle
 10
-71.699996948242
 20
131.30000305175
 30
0.0
 40
0.4000000059605
100
AcDbArc
 50
89.99998201390965
 51
179.9999640278191
  0
ARC
  5
167
330
18
100
AcDbEntity
  8
PV0001_1
  6
Continuous
 48
0.5
370
    50
100
AcDbCircle
 10
-69.800003051757
 20
131.10000610351
 30
0.0
 40
0.6000000238419
100
AcDbArc
 50
0.0
 51
89.99998201390965
  0
ARC
  5
168
330
18
100
AcDbEntity
  8
PV0001_1
  6
Continuous
 48
0.5
370
    50
100
AcDbCircle
 10
-68.220169067382
 20
131.88941955566
 30
0.0
 40
0.2000000029802
100
AcDbArc
 50
117.3049472966005
 51
234.4267362404176
  0
ARC
  5
169
330
18
100
AcDbEntity
  8
PV0001_1
  6
Continuous
 48
0.5
370
    50
100
AcDbCircle
 10
-71.899993896484
 20
134.10000610351
 30
0.0
 40
0.2000000029802
100
AcDbArc
 50
89.99998201390965
 51
179.9999640278191
  0
ARC
  5
16A
330
18
100
AcDbEntity
  8
PV0001_1
  6
Continuous
 48
0.5
370
    50
100
AcDbCircle
 10
-71.899993896484
 20
132.60000610351
 30
0.0
 40
0.2000000029802
100
AcDbArc
 50
179.9999776881987
 51
270.0000280040004
  0
ARC
  5
16B
330
18
100
AcDbEntity
  8
PV0001_1
  6
Continuous
 48
0.5
370
    50
100
AcDbCircle
 10
-69.800003051757
 20
133.0
 30
0.0
 40
0.6000000238419
100
AcDbArc
 50
270.0000179860904
 51
0.0
  0
ARC
  5
16C
330
18
100
AcDbEntity
  8
PV0001_1
  6
Continuous
 48
0.5
370
    50
100
AcDbCircle
 10
-69.800003051757
 20
133.70001220703
 30
0.0
 40
0.6000000238419
100
AcDbArc
 50
0.0
 51
89.99998201390965
  0
ARC
  5
16D
330
18
100
AcDbEntity
  8
PV0001_1
  6
Continuous
 48
0.5
370
    50
100
AcDbCircle
 10
-65.800003051757
 20
131.5
 30
0.0
 40
1.399999976158099
100
AcDbArc
 50
179.9999776881987
 51
270.0000280040004
  0
ARC
  5
16E
330
18
100
AcDbEntity
  8
PV0001_1
  6
Continuous
 48
0.5
370
    50
100
AcDbCircle
 10
-62.0
 20
131.5
 30
0.0
 40
1.399999976158099
100
AcDbArc
 50
270.0000179860904
 51
0.0
  0
ARC
  5
16F
330
18
100
AcDbEntity
  8
PV0001_1
  6
Continuous
 48
0.5
370
    50
100
AcDbCircle
 10
-62.0
 20
133.5
 30
0.0
 40
1.399999976158099
100
AcDbArc
 50
0.0
 51
89.99998201390965
  0
ARC
  5
170
330
18
100
AcDbEntity
  8
PV0001_1
  6
Continuous
 48
0.5
370
    50
100
AcDbCircle
 10
-65.800003051757
 20
133.5
 30
0.0
 40
1.399999976158099
100
AcDbArc
 50
89.99998201390965
 51
179.9999640278191
  0
ARC
  5
171
330
18
100
AcDbEntity
  8
PV0001_1
  6
Continuous
 48
0.5
370
    50
100
AcDbCircle
 10
-64.800003051757
 20
133.5
 30
0.0
 40
0.8000000119209001
100
AcDbArc
 50
89.99998201390965
 51
179.9999640278191
  0
ARC
  5
172
330
18
100
AcDbEntity
  8
PV0001_1
  6
Continuous
 48
0.5
370
    50
100
AcDbCircle
 10
-64.800003051757
 20
131.70001220703
 30
0.0
 40
0.8000000119209001
100
AcDbArc
 50
179.9999776881987
 51
270.0000280040004
  0
ARC
  5
173
330
18
100
AcDbEntity
  8
PV0001_1
  6
Continuous
 48
0.5
370
    50
100
AcDbCircle
 10
-63.0
 20
131.70001220703
 30
0.0
 40
0.8000000119209001
100
AcDbArc
 50
270.0000179860904
 51
0.0
  0
ARC
  5
174
330
18
100
AcDbEntity
  8
PV0001_1
  6
Continuous
 48
0.5
370
    50
100
AcDbCircle
 10
-63.0
 20
133.5
 30
0.0
 40
0.8000000119209001
100
AcDbArc
 50
0.0
 51
89.99998201390965
  0
ARC
  5
175
330
18
100
AcDbEntity
  8
PV0001_1
  6
Continuous
 48
0.5
370
    50
100
AcDbCircle
 10
-58.39999389648401
 20
134.10000610351
 30
0.0
 40
0.2000000029802
100
AcDbArc
 50
89.99998201390965
 51
179.9999640278191
  0
ARC
  5
176
330
18
100
AcDbEntity
  8
PV0001_1
  6
Continuous
 48
0.5
370
    50
100
AcDbCircle
 10
-58.39999389648401
 20
131.10000610351
 30
0.0
 40
0.2000000029802
100
AcDbArc
 50
179.9999776881987
 51
270.0000280040004
  0
ARC
  5
177
330
18
100
AcDbEntity
  8
PV0001_1
  6
Continuous
 48
0.5
370
    50
100
AcDbCircle
 10
-56.19999694824199
 20
131.70001220703
 30
0.0
 40
0.8000000119209001
100
AcDbArc
 50
270.0000179860904
 51
0.0
  0
ARC
  5
178
330
18
100
AcDbEntity
  8
PV0001_1
  6
Continuous
 48
0.5
370
    50
100
AcDbCircle
 10
-56.19999694824199
 20
133.5
 30
0.0
 40
0.8000000119209001
100
AcDbArc
 50
0.0
 51
89.99998201390965
  0
ARC
  5
179
330
18
100
AcDbEntity
  8
PV0001_1
  6
Continuous
 48
0.5
370
    50
100
AcDbCircle
 10
-55.199996948242
 20
131.50001525878
 30
0.0
 40
1.399999976158099
100
AcDbArc
 50
270.0000179860904
 51
0.0
  0
ARC
  5
17A
330
18
100
AcDbEntity
  8
PV0001_1
  6
Continuous
 48
0.5
370
    50
100
AcDbCircle
 10
-55.199996948242
 20
133.5
 30
0.0
 40
1.399999976158099
100
AcDbArc
 50
0.0
 51
89.99998201390965
  0
ARC
  5
17B
330
18
100
AcDbEntity
  8
PV0001_1
  6
Continuous
 48
0.5
370
    50
100
AcDbCircle
 10
-51.322509765625
 20
132.10000610351
 30
0.0
 40
0.2000000029802
100
AcDbArc
 50
161.5650375711494
 51
270.000000683247
  0
ARC
  5
17C
330
18
100
AcDbEntity
  8
PV0001_1
  6
Continuous
 48
0.5
370
    50
100
AcDbCircle
 10
-49.07748413085901
 20
132.10000610351
 30
0.0
 40
0.2000000029802
100
AcDbArc
 50
270.0000179860904
 51
18.4348803528989
  0
ARC
  5
17D
330
18
100
AcDbEntity
  8
PV0001_1
  6
Continuous
 48
0.5
370
    50
100
AcDbCircle
 10
-50.65585327148401
 20
134.10000610351
 30
0.0
 40
0.2000000029802
100
AcDbArc
 50
89.99998201390965
 51
161.5651331937947
  0
ARC
  5
17E
330
18
100
AcDbEntity
  8
PV0001_1
  6
Continuous
 48
0.5
370
    50
100
AcDbCircle
 10
-49.744140625
 20
134.10000610351
 30
0.0
 40
0.2000000029802
100
AcDbArc
 50
18.43505281517194
 51
89.99998201390965
  0
ARC
  5
17F
330
18
100
AcDbEntity
  8
PV0001_1
  6
Continuous
 48
0.5
370
    50
100
AcDbCircle
 10
-51.72250366210899
 20
130.90000915527
 30
0.0
 40
0.2000000029802
100
AcDbArc
 50
89.99998201390965
 51
161.5650102503904
  0
ARC
  5
180
330
18
100
AcDbEntity
  8
PV0001_1
  6
Continuous
 48
0.5
370
    50
100
AcDbCircle
 10
-48.677490234375
 20
130.90000915527
 30
0.0
 40
0.2000000029802
100
AcDbArc
 50
18.4348803528989
 51
89.99998201390965
  0
CIRCLE
  5
181
330
18
100
AcDbEntity
  8
PV0001_1
  6
Continuous
 48
0.5
370
   100
100
AcDbCircle
 10
149.39999389648
 20
132.49993896484
 30
0.0
 40
2.700000047683698
  0
CIRCLE
  5
182
330
18
100
AcDbEntity
  8
PV0001_1
  6
Continuous
 48
0.5
370
   100
100
AcDbCircle
 10
149.39999389648
 20
132.49993896484
 30
0.0
 40
1.620000123977699
  0
MTEXT
  5
1D0
330
18
100
AcDbEntity
  8
PV0001_1
 62
     7
370
    25
100
AcDbMText
 10
-40.17150610685285
 20
136.5
 30
0.0
 40
3.2
 41
0.0
 71
     4
 72
     5
  1
\T1.40;\W0.61;FILE　NAME
 73
     1
 44
1.0
1001
ACAD
1000
MTEXTBEGIN
1070
    73
1070
     1
1070
    44
1040
1.0
1070
    74
1070
     0
1000
MTEXTEND
  0
MTEXT
  5
1D1
330
18
100
AcDbEntity
  8
PV0001_1
 62
     7
370
    25
100
AcDbMText
 10
-24.45725607871948
 20
131.0
 30
0.0
 40
4.799999999999998
 41
0.0
 71
     4
 72
     5
  1
{\W0.61;\T1.4;FR3612PS}
 73
     1
 44
1.0
1001
ACAD
1000
ACAD_MTEXT_DEFINED_HEIGHT_BEGIN
1070
    46
1040
0.0
1000
ACAD_MTEXT_DEFINED_HEIGHT_END
1000
MTEXTBEGIN
1070
    73
1070
     1
1070
    44
1040
1.0
1070
    74
1070
     0
1000
MTEXTEND
  0
MTEXT
  5
1D2
330
18
100
AcDbEntity
  8
PV0001_1
 62
     7
370
    25
100
AcDbMText
 10
21.82849389314615
 20
136.5
 30
0.0
 40
3.2
 41
0.0
 71
     4
 72
     5
  1
\T1.40;\W0.61;MODEL
 73
     1
 44
1.0
1001
ACAD
1000
MTEXTBEGIN
1070
    73
1070
     1
1070
    44
1040
1.0
1070
    74
1070
     0
1000
MTEXTEND
  0
MTEXT
  5
1D3
330
18
100
AcDbEntity
  8
PV0001_1
 62
     7
370
    25
100
AcDbMText
 10
29.54274392127953
 20
131.0
 30
0.0
 40
4.799999999999998
 41
0.0
 71
     4
 72
     5
  1
{\W0.61;\T1.4;FR3612PS-DPNR}
 73
     1
 44
1.0
1001
ACAD
1000
ACAD_MTEXT_DEFINED_HEIGHT_BEGIN
1070
    46
1040
0.0
1000
ACAD_MTEXT_DEFINED_HEIGHT_END
1000
MTEXTBEGIN
1070
    73
1070
     1
1070
    44
1040
1.0
1070
    74
1070
     0
1000
MTEXTEND
  0
LINE
  5
4D4
330
18
100
AcDbEntity
  8
PV0001_1
 62
     7
100
AcDbLine
 10
296.1213203435595
 20
-35.00000000000006
 30
0.0
 11
296.1213203435595
 21
34.99999999999995
 31
0.0
  0
LINE
  5
4D6
330
18
100
AcDbEntity
  8
PV0001_1
 62
     7
100
AcDbLine
 10
294.5
 20
34.50000000000006
 30
0.0
 11
296.1213203435595
 21
34.50000000000006
 31
0.0
  0
LINE
  5
4D7
330
18
100
AcDbEntity
  8
PV0001_1
 62
     7
100
AcDbLine
 10
294.5
 20
-34.49999999999994
 30
0.0
 11
296.1213203435595
 21
-34.49999999999994
 31
0.0
  0
LINE
  5
4DC
330
18
100
AcDbEntity
  8
PV0001_1
 62
     7
100
AcDbLine
 10
294.5
 20
52.00000000000006
 30
0.0
 11
294.4999999999998
 21
-52.00000000000006
 31
0.0
  0
LINE
  5
4DF
330
18
100
AcDbEntity
  8
PV0001_1
 62
     7
100
AcDbLine
 10
276.4999999999998
 20
-51.99999999999993
 30
0.0
 11
276.4999999999998
 21
51.99999999999993
 31
0.0
  0
LINE
  5
4E1
330
18
100
AcDbEntity
  8
PV0001_1
 62
     7
100
AcDbLine
 10
276.4999999999998
 20
-51.99999999999993
 30
0.0
 11
294.4999999999998
 21
-52.00000000000006
 31
0.0
  0
LINE
  5
4E3
330
18
100
AcDbEntity
  8
PV0001_1
 62
     7
100
AcDbLine
 10
276.4999999999998
 20
51.99999999999993
 30
0.0
 11
294.5
 21
52.00000000000006
 31
0.0
  0
LINE
  5
4E4
330
18
100
AcDbEntity
  8
PV0001_1
 62
     7
100
AcDbLine
 10
324.0
 20
35.00000000000006
 30
0.0
 11
324.0
 21
-35.00000000000006
 31
0.0
  0
LINE
  5
4E7
330
18
100
AcDbEntity
  8
PV0001_1
 62
     7
100
AcDbLine
 10
262.0
 20
34.99999999999995
 30
0.0
 11
262.0
 21
-34.99999999999995
 31
0.0
  0
LINE
  5
4E9
330
18
100
AcDbEntity
  8
PV0001_1
 62
     7
100
AcDbLine
 10
324.0
 20
-35.00000000000006
 30
0.0
 11
296.1213203435595
 21
-35.00000000000006
 31
0.0
  0
LINE
  5
4EA
330
18
100
AcDbEntity
  8
PV0001_1
 62
     7
100
AcDbLine
 10
324.0
 20
35.00000000000006
 30
0.0
 11
296.1213203435595
 21
34.99999999999995
 31
0.0
  0
LINE
  5
4EB
330
18
100
AcDbEntity
  8
PV0001_1
 62
     7
100
AcDbLine
 10
276.4999999999998
 20
-35.00000000000006
 30
0.0
 11
262.0
 21
-34.99999999999995
 31
0.0
  0
LINE
  5
4ED
330
18
100
AcDbEntity
  8
PV0001_1
 62
     7
100
AcDbLine
 10
276.4999999999998
 20
34.99999999999995
 30
0.0
 11
262.0
 21
34.99999999999995
 31
0.0
  0
LINE
  5
4EE
330
18
100
AcDbEntity
  8
PV0001_1
 62
     7
100
AcDbLine
 10
39.99994277954121
 20
-33.22649545166837
 30
0.0
 11
39.99994277954121
 21
33.22649545167633
 31
0.0
  0
ARC
  5
4EF
330
18
100
AcDbEntity
  8
PV0001_1
 62
     7
100
AcDbCircle
 10
-0.0000572204586717
 20
0.000000000003979
 30
0.0
 40
52.0
100
AcDbArc
 50
193.7952993995813
 51
320.2848627681744
  0
ARC
  5
4F0
330
18
100
AcDbEntity
  8
PV0001_1
 62
     7
100
AcDbCircle
 10
-0.0000572204586717
 20
0.000000000003979
 30
0.0
 40
52.0
100
AcDbArc
 50
39.71513723182561
 51
166.2047006004186
  0
CIRCLE
  5
4F1
330
18
100
AcDbEntity
  8
PV0001_1
 62
     7
100
AcDbCircle
 10
-41.00005722045871
 20
0.0000000000039791
 30
0.0
 40
2.458499999999999
  0
CIRCLE
  5
4F2
330
18
100
AcDbEntity
  8
PV0001_1
 62
     7
100
AcDbCircle
 10
-41.00005722045871
 20
0.0000000000039791
 30
0.0
 40
3.0
  0
CIRCLE
  5
4F3
330
18
100
AcDbEntity
  8
PV0001_1
 62
     7
100
AcDbCircle
 10
-0.0000572204561706
 20
43.00000000000387
 30
0.0
 40
4.5
  0
CIRCLE
  5
4F4
330
18
100
AcDbEntity
  8
PV0001_1
 62
     7
100
AcDbCircle
 10
-0.0000572204587286
 20
43.00000000000387
 30
0.0
 40
7.0
  0
CIRCLE
  5
4F5
330
18
100
AcDbEntity
  8
PV0001_1
 62
     7
100
AcDbCircle
 10
-30.40564881147773
 20
-30.40559159101758
 30
0.0
 40
4.5
  0
CIRCLE
  5
4F6
330
18
100
AcDbEntity
  8
PV0001_1
 62
     7
100
AcDbCircle
 10
-30.40564881148024
 20
-30.40559159101758
 30
0.0
 40
7.0
  0
CIRCLE
  5
4F7
330
18
100
AcDbEntity
  8
PV0001_1
 62
     7
100
AcDbCircle
 10
30.40553437056539
 20
30.40559159102554
 30
0.0
 40
4.5
  0
CIRCLE
  5
4F8
330
18
100
AcDbEntity
  8
PV0001_1
 62
     7
100
AcDbCircle
 10
30.40553437056289
 20
30.40559159102554
 30
0.0
 40
7.0
  0
CIRCLE
  5
4F9
330
18
100
AcDbEntity
  8
PV0001_1
 62
     7
100
AcDbCircle
 10
30.40553437056539
 20
-30.40559159101758
 30
0.0
 40
4.5
  0
CIRCLE
  5
4FA
330
18
100
AcDbEntity
  8
PV0001_1
 62
     7
100
AcDbCircle
 10
30.40553437056289
 20
-30.40559159101758
 30
0.0
 40
7.0
  0
CIRCLE
  5
4FB
330
18
100
AcDbEntity
  8
PV0001_1
 62
     7
100
AcDbCircle
 10
-30.40564881147773
 20
30.40559159102554
 30
0.0
 40
4.5
  0
CIRCLE
  5
4FC
330
18
100
AcDbEntity
  8
PV0001_1
 62
     7
100
AcDbCircle
 10
-30.40564881148024
 20
30.40559159102554
 30
0.0
 40
7.0
  0
CIRCLE
  5
4FD
330
18
100
AcDbEntity
  8
PV0001_1
 62
     7
100
AcDbCircle
 10
-0.0000572204561706
 20
-42.99999999999612
 30
0.0
 40
4.5
  0
CIRCLE
  5
4FE
330
18
100
AcDbEntity
  8
PV0001_1
 62
     7
100
AcDbCircle
 10
-0.0000572204586717
 20
-42.99999999999612
 30
0.0
 40
7.0
  0
LINE
  5
4FF
330
18
100
AcDbEntity
  8
PV0001_1
 62
     7
100
AcDbLine
 10
-50.50005722045867
 20
12.39959676764124
 30
0.0
 11
-50.50005722045867
 21
-12.39959676763328
 31
0.0
  0
LINE
  5
501
330
18
100
AcDbEntity
  8
PV0001_1
  6
CENTER
 62
     7
 48
3.0
100
AcDbLine
 10
-38.95539790970193
 20
38.95534068924689
 30
0.0
 11
38.95528346877595
 21
-38.95534068923894
 31
0.0
  0
LINE
  5
502
330
18
100
AcDbEntity
  8
PV0001_1
  6
CENTER
 62
     7
 48
3.0
100
AcDbLine
 10
-0.0000572204590128
 20
-55.09117112958495
 30
0.0
 11
-0.000057220466914
 21
55.09117112959291
 31
0.0
  0
LINE
  5
503
330
18
100
AcDbEntity
  8
PV0001_1
  6
CENTER
 62
     7
 48
3.0
100
AcDbLine
 10
38.95528346877993
 20
38.95534068924293
 30
0.0
 11
-38.95539790970193
 21
-38.95534068923894
 31
0.0
  0
CIRCLE
  5
504
330
18
100
AcDbEntity
  8
PV0001_1
  6
CENTER
 62
     7
 48
3.0
100
AcDbCircle
 10
-0.0000572204629918
 20
0.000000000003979
 30
0.0
 40
42.99999999999989
  0
LINE
  5
50B
330
18
100
AcDbEntity
  8
PV0001_1
  6
DASHED2
 62
     7
 48
0.3
100
AcDbLine
 10
-48.50005722045867
 20
1.500000000003978
 30
0.0
 11
-43.50005722045866
 21
1.500000000003978
 31
0.0
  0
LINE
  5
50C
330
18
100
AcDbEntity
  8
PV0001_1
  6
DASHED2
 62
     7
 48
0.1
100
AcDbLine
 10
-43.50005722045866
 20
1.500000000003978
 30
0.0
 11
-43.50005722045866
 21
-1.499999999996019
 31
0.0
  0
LINE
  5
50D
330
18
100
AcDbEntity
  8
PV0001_1
  6
DASHED2
 62
     7
 48
0.3
100
AcDbLine
 10
-43.50005722045866
 20
-1.499999999996019
 30
0.0
 11
-48.50005722045867
 21
-1.499999999996019
 31
0.0
  0
LINE
  5
50E
330
18
100
AcDbEntity
  8
PV0001_1
  6
DASHED2
 62
     7
 48
0.3
100
AcDbLine
 10
-48.50005722045867
 20
-1.199999999996065
 30
0.0
 11
-19.7135678159913
 21
-1.199999999996065
 31
0.0
  0
LINE
  5
50F
330
18
100
AcDbEntity
  8
PV0001_1
  6
DASHED2
 62
     7
 48
0.3
100
AcDbLine
 10
-48.50005722045867
 20
1.200000000004024
 30
0.0
 11
-19.71356781599084
 21
1.200000000004024
 31
0.0
  0
CIRCLE
  5
510
330
18
100
AcDbEntity
  8
PV0001_1
 62
     7
100
AcDbCircle
 10
-0.0000572204590696
 20
0.000000000003979
 30
0.0
 40
35.0
  0
LINE
  5
511
330
18
100
AcDbEntity
  8
PV0001_1
  6
DASHED2
 62
     7
 48
0.2
100
AcDbLine
 10
290.5
 20
2.458500000000015
 30
0.0
 11
290.5
 21
1.229500000000085
 31
0.0
  0
LINE
  5
512
330
18
100
AcDbEntity
  8
PV0001_1
  6
DASHED2
 62
     7
 48
0.2
100
AcDbLine
 10
290.5
 20
-1.229499999999972
 30
0.0
 11
290.5
 21
-2.458500000000015
 31
0.0
  0
LINE
  5
513
330
18
100
AcDbEntity
  8
PV0001_1
  6
DASHED2
 62
     7
 48
0.3
100
AcDbLine
 10
290.5
 20
-2.458500000000015
 30
0.0
 11
276.5
 21
-2.458500000000015
 31
0.0
  0
LINE
  5
514
330
18
100
AcDbEntity
  8
PV0001_1
  6
DASHED2
 62
     7
 48
0.3
100
AcDbLine
 10
290.5
 20
2.458500000000127
 30
0.0
 11
276.5
 21
2.458500000000127
 31
0.0
  0
LINE
  5
515
330
18
100
AcDbEntity
  8
PV0001_1
  6
DASHED2
 62
     7
 48
0.2
100
AcDbLine
 10
291.0011448296357
 20
-1.624454942351178
 30
0.0
 11
290.5
 21
-2.458500000000015
 31
0.0
  0
LINE
  5
516
330
18
100
AcDbEntity
  8
PV0001_1
  6
DASHED2
 62
     7
 48
0.2
100
AcDbLine
 10
291.0011448296355
 20
1.624454942351349
 30
0.0
 11
290.5
 21
2.458500000000127
 31
0.0
  0
LINE
  5
517
330
18
100
AcDbEntity
  8
PV0001_1
  6
DASHED2
 62
     7
 48
0.3
100
AcDbLine
 10
276.5
 20
-2.999999999999943
 30
0.0
 11
282.5
 21
-2.999999999999943
 31
0.0
  0
LINE
  5
518
330
18
100
AcDbEntity
  8
PV0001_1
  6
DASHED2
 62
     7
 48
0.3
100
AcDbLine
 10
282.5
 20
3.000000000000055
 30
0.0
 11
276.5
 21
3.000000000000055
 31
0.0
  0
LINE
  5
519
330
18
100
AcDbEntity
  8
PV0001_1
  6
DASHED2
 62
     7
 48
0.3
100
AcDbLine
 10
282.5
 20
3.000000000000055
 30
0.0
 11
282.5
 21
-2.999999999999943
 31
0.0
  0
POLYLINE
  5
51A
330
18
100
AcDbEntity
  8
PV0001_1
  6
DASHED2
 62
     7
 48
0.2
100
AcDb2dPolyline
 66
     1
 10
0.0
 20
0.0
 30
0.0
 70
   128
  0
VERTEX
  5
51B
330
51A
100
AcDbEntity
  8
PV0001_1
  6
DASHED2
 62
     7
 48
0.2
100
AcDbVertex
100
AcDb2dVertex
 10
290.4999998731901
 20
-1.229499437581863
 30
0.0
  0
VERTEX
  5
51C
330
51A
100
AcDbEntity
  8
PV0001_1
  6
DASHED2
 62
     7
 48
0.2
100
AcDbVertex
100
AcDb2dVertex
 10
290.1844314260772
 20
-1.188043215047684
 30
0.0
  0
VERTEX
  5
51D
330
51A
100
AcDbEntity
  8
PV0001_1
  6
DASHED2
 62
     7
 48
0.2
100
AcDbVertex
100
AcDb2dVertex
 10
289.8829761667542
 20
-1.063161947500077
 30
0.0
  0
VERTEX
  5
51E
330
51A
100
AcDbEntity
  8
PV0001_1
  6
DASHED2
 62
     7
 48
0.2
100
AcDbVertex
100
AcDb2dVertex
 10
289.6306124849607
 20
-0.8693884394281781
 30
0.0
  0
VERTEX
  5
51F
330
51A
100
AcDbEntity
  8
PV0001_1
  6
DASHED2
 62
     7
 48
0.2
100
AcDbVertex
100
AcDb2dVertex
 10
289.4368377847959
 20
-0.6170235655420698
 30
0.0
  0
VERTEX
  5
520
330
51A
100
AcDbEntity
  8
PV0001_1
  6
DASHED2
 62
     7
 48
0.2
100
AcDbVertex
100
AcDb2dVertex
 10
289.3119565172485
 20
-0.3155683062189496
 30
0.0
  0
VERTEX
  5
521
330
51A
100
AcDbEntity
  8
PV0001_1
  6
DASHED2
 62
     7
 48
0.2
100
AcDbVertex
100
AcDb2dVertex
 10
289.2705002947143
 20
0.0000001408940875
 30
0.0
  0
VERTEX
  5
522
330
51A
100
AcDbEntity
  8
PV0001_1
  6
DASHED2
 62
     7
 48
0.2
100
AcDbVertex
100
AcDb2dVertex
 10
289.3119565172485
 20
0.3155685880071246
 30
0.0
  0
VERTEX
  5
523
330
51A
100
AcDbEntity
  8
PV0001_1
  6
DASHED2
 62
     7
 48
0.2
100
AcDbVertex
100
AcDb2dVertex
 10
289.4368377847959
 20
0.6170238473302449
 30
0.0
  0
VERTEX
  5
524
330
51A
100
AcDbEntity
  8
PV0001_1
  6
DASHED2
 62
     7
 48
0.2
100
AcDbVertex
100
AcDb2dVertex
 10
289.6306124849607
 20
0.8693875291234576
 30
0.0
  0
VERTEX
  5
525
330
51A
100
AcDbEntity
  8
PV0001_1
  6
DASHED2
 62
     7
 48
0.2
100
AcDbVertex
100
AcDb2dVertex
 10
289.8829761667542
 20
1.063162229288252
 30
0.0
  0
VERTEX
  5
526
330
51A
100
AcDbEntity
  8
PV0001_1
  6
DASHED2
 62
     7
 48
0.2
100
AcDbVertex
100
AcDb2dVertex
 10
290.1844314260772
 20
1.188043496835859
 30
0.0
  0
VERTEX
  5
527
330
51A
100
AcDbEntity
  8
PV0001_1
  6
DASHED2
 62
     7
 48
0.2
100
AcDbVertex
100
AcDb2dVertex
 10
290.4999998731901
 20
1.229499719370039
 30
0.0
  0
VERTEX
  5
528
330
51A
100
AcDbEntity
  8
PV0001_1
  6
DASHED2
 62
     7
 48
0.2
100
AcDbVertex
100
AcDb2dVertex
 10
290.8155683203034
 20
1.188043496835859
 30
0.0
  0
VERTEX
  5
529
330
51A
100
AcDbEntity
  8
PV0001_1
  6
DASHED2
 62
     7
 48
0.2
100
AcDbVertex
100
AcDb2dVertex
 10
291.1170235796264
 20
1.063162229288252
 30
0.0
  0
VERTEX
  5
52A
330
51A
100
AcDbEntity
  8
PV0001_1
  6
DASHED2
 62
     7
 48
0.2
100
AcDbVertex
100
AcDb2dVertex
 10
291.3693872614194
 20
0.8693875291234576
 30
0.0
  0
VERTEX
  5
52B
330
51A
100
AcDbEntity
  8
PV0001_1
  6
DASHED2
 62
     7
 48
0.2
100
AcDbVertex
100
AcDb2dVertex
 10
291.5631619615842
 20
0.6170238473302449
 30
0.0
  0
VERTEX
  5
52C
330
51A
100
AcDbEntity
  8
PV0001_1
  6
DASHED2
 62
     7
 48
0.2
100
AcDbVertex
100
AcDb2dVertex
 10
291.6880432291321
 20
0.3155685880071246
 30
0.0
  0
VERTEX
  5
52D
330
51A
100
AcDbEntity
  8
PV0001_1
  6
DASHED2
 62
     7
 48
0.2
100
AcDbVertex
100
AcDb2dVertex
 10
291.7294994516662
 20
0.0000001408940875
 30
0.0
  0
VERTEX
  5
52E
330
51A
100
AcDbEntity
  8
PV0001_1
  6
DASHED2
 62
     7
 48
0.2
100
AcDbVertex
100
AcDb2dVertex
 10
291.6880432291321
 20
-0.3155683062189496
 30
0.0
  0
VERTEX
  5
52F
330
51A
100
AcDbEntity
  8
PV0001_1
  6
DASHED2
 62
     7
 48
0.2
100
AcDbVertex
100
AcDb2dVertex
 10
291.5631619615842
 20
-0.6170235655420698
 30
0.0
  0
VERTEX
  5
530
330
51A
100
AcDbEntity
  8
PV0001_1
  6
DASHED2
 62
     7
 48
0.2
100
AcDbVertex
100
AcDb2dVertex
 10
291.3693872614194
 20
-0.8693884394281781
 30
0.0
  0
VERTEX
  5
531
330
51A
100
AcDbEntity
  8
PV0001_1
  6
DASHED2
 62
     7
 48
0.2
100
AcDbVertex
100
AcDb2dVertex
 10
291.1170235796264
 20
-1.063161947500077
 30
0.0
  0
VERTEX
  5
532
330
51A
100
AcDbEntity
  8
PV0001_1
  6
DASHED2
 62
     7
 48
0.2
100
AcDbVertex
100
AcDb2dVertex
 10
290.8155683203034
 20
-1.188043215047684
 30
0.0
  0
VERTEX
  5
533
330
51A
100
AcDbEntity
  8
PV0001_1
  6
DASHED2
 62
     7
 48
0.2
100
AcDbVertex
100
AcDb2dVertex
 10
290.4999998731901
 20
-1.229499437581863
 30
0.0
  0
SEQEND
  5
534
330
51A
100
AcDbEntity
  8
PV0001_1
  6
DASHED2
 62
     7
 48
0.2
  0
POLYLINE
  5
535
330
18
100
AcDbEntity
  8
PV0001_1
  6
DASHED2
 62
     7
 48
0.3
100
AcDb2dPolyline
 66
     1
 10
0.0
 20
0.0
 30
0.0
 70
   128
  0
VERTEX
  5
536
330
535
100
AcDbEntity
  8
PV0001_1
  6
DASHED2
 62
     7
 48
0.3
100
AcDbVertex
100
AcDb2dVertex
 10
290.4999998731901
 20
-1.499999620687332
 30
0.0
  0
VERTEX
  5
537
330
535
100
AcDbEntity
  8
PV0001_1
  6
DASHED2
 62
     7
 48
0.3
100
AcDbVertex
100
AcDb2dVertex
 10
290.5372122450165
 20
-1.499510862600175
 30
0.0
  0
VERTEX
  5
538
330
535
100
AcDbEntity
  8
PV0001_1
  6
DASHED2
 62
     7
 48
0.3
100
AcDbVertex
100
AcDb2dVertex
 10
290.5745104475311
 20
-1.498062469732133
 30
0.0
  0
VERTEX
  5
539
330
535
100
AcDbEntity
  8
PV0001_1
  6
DASHED2
 62
     7
 48
0.3
100
AcDbVertex
100
AcDb2dVertex
 10
290.6118050737671
 20
-1.495677091848222
 30
0.0
  0
VERTEX
  5
53A
330
535
100
AcDbEntity
  8
PV0001_1
  6
DASHED2
 62
     7
 48
0.3
100
AcDbVertex
100
AcDb2dVertex
 10
290.6490031404785
 20
-1.492382147085038
 30
0.0
  0
VERTEX
  5
53B
330
535
100
AcDbEntity
  8
PV0001_1
  6
DASHED2
 62
     7
 48
0.3
100
AcDbVertex
100
AcDb2dVertex
 10
290.6860116644196
 20
-1.488202669393388
 30
0.0
  0
VERTEX
  5
53C
330
535
100
AcDbEntity
  8
PV0001_1
  6
DASHED2
 62
     7
 48
0.3
100
AcDbVertex
100
AcDb2dVertex
 10
290.722741238623
 20
-1.483162500631181
 30
0.0
  0
VERTEX
  5
53D
330
535
100
AcDbEntity
  8
PV0001_1
  6
DASHED2
 62
     7
 48
0.3
100
AcDbVertex
100
AcDb2dVertex
 10
290.7590976877502
 20
-1.477287866842118
 30
0.0
  0
VERTEX
  5
53E
330
535
100
AcDbEntity
  8
PV0001_1
  6
DASHED2
 62
     7
 48
0.3
100
AcDbVertex
100
AcDb2dVertex
 10
290.7949904127411
 20
-1.470603801977005
 30
0.0
  0
VERTEX
  5
53F
330
535
100
AcDbEntity
  8
PV0001_1
  6
DASHED2
 62
     7
 48
0.3
100
AcDbVertex
100
AcDb2dVertex
 10
290.8303264303497
 20
-1.463136532079544
 30
0.0
  0
VERTEX
  5
540
330
535
100
AcDbEntity
  8
PV0001_1
  6
DASHED2
 62
     7
 48
0.3
100
AcDbVertex
100
AcDb2dVertex
 10
290.8650139494232
 20
-1.454908706914749
 30
0.0
  0
VERTEX
  5
541
330
535
100
AcDbEntity
  8
PV0001_1
  6
DASHED2
 62
     7
 48
0.3
100
AcDbVertex
100
AcDb2dVertex
 10
290.8990338964752
 20
-1.44588575578865
 30
0.0
  0
VERTEX
  5
542
330
535
100
AcDbEntity
  8
PV0001_1
  6
DASHED2
 62
     7
 48
0.3
100
AcDbVertex
100
AcDb2dVertex
 10
290.932337395697
 20
-1.436070062887039
 30
0.0
  0
VERTEX
  5
543
330
535
100
AcDbEntity
  8
PV0001_1
  6
DASHED2
 62
     7
 48
0.3
100
AcDbVertex
100
AcDb2dVertex
 10
290.9646419210722
 20
-1.425690510045853
 30
0.0
  0
VERTEX
  5
544
330
535
100
AcDbEntity
  8
PV0001_1
  6
DASHED2
 62
     7
 48
0.3
100
AcDbVertex
100
AcDb2dVertex
 10
290.9956577940277
 20
-1.414983131658401
 30
0.0
  0
VERTEX
  5
545
330
535
100
AcDbEntity
  8
PV0001_1
  6
DASHED2
 62
     7
 48
0.3
100
AcDbVertex
100
AcDb2dVertex
 10
291.0250965280823
 20
-1.404181577932205
 30
0.0
  0
VERTEX
  5
546
330
535
100
AcDbEntity
  8
PV0001_1
  6
DASHED2
 62
     7
 48
0.3
100
AcDbVertex
100
AcDb2dVertex
 10
291.0526660604764
 20
-1.39352069116768
 30
0.0
  0
VERTEX
  5
547
330
535
100
AcDbEntity
  8
PV0001_1
  6
DASHED2
 62
     7
 48
0.3
100
AcDbVertex
100
AcDb2dVertex
 10
291.0780767126373
 20
-1.383235313665237
 30
0.0
  0
VERTEX
  5
548
330
535
100
AcDbEntity
  8
PV0001_1
  6
DASHED2
 62
     7
 48
0.3
100
AcDbVertex
100
AcDb2dVertex
 10
291.1010411901762
 20
-1.3735590956324
 30
0.0
  0
VERTEX
  5
549
330
535
100
AcDbEntity
  8
PV0001_1
  6
DASHED2
 62
     7
 48
0.3
100
AcDbVertex
100
AcDb2dVertex
 10
291.1212662382416
 20
-1.364728071462478
 30
0.0
  0
VERTEX
  5
54A
330
535
100
AcDbEntity
  8
PV0001_1
  6
DASHED2
 62
     7
 48
0.3
100
AcDbVertex
100
AcDb2dVertex
 10
291.1384645624451
 20
-1.356977083455888
 30
0.0
  0
VERTEX
  5
54B
330
535
100
AcDbEntity
  8
PV0001_1
  6
DASHED2
 62
     7
 48
0.3
100
AcDbVertex
100
AcDb2dVertex
 10
291.1523464842133
 20
-1.350538589727249
 30
0.0
  0
VERTEX
  5
54C
330
535
100
AcDbEntity
  8
PV0001_1
  6
DASHED2
 62
     7
 48
0.3
100
AcDbVertex
100
AcDb2dVertex
 10
291.1626199407867
 20
-1.345649816762771
 30
0.0
  0
VERTEX
  5
54D
330
535
100
AcDbEntity
  8
PV0001_1
  6
DASHED2
 62
     7
 48
0.3
100
AcDbVertex
100
AcDb2dVertex
 10
291.1689964456846
 20
-1.342544414769974
 30
0.0
  0
VERTEX
  5
54E
330
535
100
AcDbEntity
  8
PV0001_1
  6
DASHED2
 62
     7
 48
0.3
100
AcDbVertex
100
AcDb2dVertex
 10
291.1711863203338
 20
-1.34145722604927
 30
0.0
  0
SEQEND
  5
54F
330
535
100
AcDbEntity
  8
PV0001_1
  6
DASHED2
 62
     7
 48
0.3
  0
POLYLINE
  5
550
330
18
100
AcDbEntity
  8
PV0001_1
  6
DASHED2
 62
     7
 48
0.2
100
AcDb2dPolyline
 66
     1
 10
0.0
 20
0.0
 30
0.0
 70
   128
  0
VERTEX
  5
551
330
550
100
AcDbEntity
  8
PV0001_1
  6
DASHED2
 62
     7
 48
0.2
100
AcDbVertex
100
AcDb2dVertex
 10
290.4999998731901
 20
1.499999902475508
 30
0.0
  0
VERTEX
  5
552
330
550
100
AcDbEntity
  8
PV0001_1
  6
DASHED2
 62
     7
 48
0.2
100
AcDbVertex
100
AcDb2dVertex
 10
290.3039554281524
 20
1.486836216676863
 30
0.0
  0
VERTEX
  5
553
330
550
100
AcDbEntity
  8
PV0001_1
  6
DASHED2
 62
     7
 48
0.2
100
AcDbVertex
100
AcDb2dVertex
 10
290.1088479681305
 20
1.447794578302534
 30
0.0
  0
VERTEX
  5
554
330
550
100
AcDbEntity
  8
PV0001_1
  6
DASHED2
 62
     7
 48
0.2
100
AcDbVertex
100
AcDb2dVertex
 10
289.9205282850555
 20
1.383550307977827
 30
0.0
  0
VERTEX
  5
555
330
550
100
AcDbEntity
  8
PV0001_1
  6
DASHED2
 62
     7
 48
0.2
100
AcDbVertex
100
AcDb2dVertex
 10
289.7442380113891
 20
1.29540695928398
 30
0.0
  0
VERTEX
  5
556
330
550
100
AcDbEntity
  8
PV0001_1
  6
DASHED2
 62
     7
 48
0.2
100
AcDbVertex
100
AcDb2dVertex
 10
289.5836070699981
 20
1.187199495065839
 30
0.0
  0
VERTEX
  5
557
330
550
100
AcDbEntity
  8
PV0001_1
  6
DASHED2
 62
     7
 48
0.2
100
AcDbVertex
100
AcDb2dVertex
 10
289.4420949144651
 20
1.063407800424727
 30
0.0
  0
VERTEX
  5
558
330
550
100
AcDbEntity
  8
PV0001_1
  6
DASHED2
 62
     7
 48
0.2
100
AcDbVertex
100
AcDb2dVertex
 10
289.3173984213165
 20
0.9222842671758256
 30
0.0
  0
VERTEX
  5
559
330
550
100
AcDbEntity
  8
PV0001_1
  6
DASHED2
 62
     7
 48
0.2
100
AcDbVertex
100
AcDb2dVertex
 10
289.2077270670227
 20
0.7610346295720662
 30
0.0
  0
VERTEX
  5
55A
330
550
100
AcDbEntity
  8
PV0001_1
  6
DASHED2
 62
     7
 48
0.2
100
AcDbVertex
100
AcDb2dVertex
 10
289.1180804891876
 20
0.5833507993108356
 30
0.0
  0
VERTEX
  5
55B
330
550
100
AcDbEntity
  8
PV0001_1
  6
DASHED2
 62
     7
 48
0.2
100
AcDbVertex
100
AcDb2dVertex
 10
289.0528134031585
 20
0.3932739713079059
 30
0.0
  0
VERTEX
  5
55C
330
550
100
AcDbEntity
  8
PV0001_1
  6
DASHED2
 62
     7
 48
0.2
100
AcDbVertex
100
AcDb2dVertex
 10
289.013287179022
 20
0.1966740109807574
 30
0.0
  0
VERTEX
  5
55D
330
550
100
AcDbEntity
  8
PV0001_1
  6
DASHED2
 62
     7
 48
0.2
100
AcDbVertex
100
AcDb2dVertex
 10
289.0000001116089
 20
0.0000001408940875
 30
0.0
  0
VERTEX
  5
55E
330
550
100
AcDbEntity
  8
PV0001_1
  6
DASHED2
 62
     7
 48
0.2
100
AcDbVertex
100
AcDb2dVertex
 10
289.013287179022
 20
-0.1966737291925824
 30
0.0
  0
VERTEX
  5
55F
330
550
100
AcDbEntity
  8
PV0001_1
  6
DASHED2
 62
     7
 48
0.2
100
AcDbVertex
100
AcDb2dVertex
 10
289.0528134031585
 20
-0.3932736895197308
 30
0.0
  0
VERTEX
  5
560
330
550
100
AcDbEntity
  8
PV0001_1
  6
DASHED2
 62
     7
 48
0.2
100
AcDbVertex
100
AcDb2dVertex
 10
289.1180804891876
 20
-0.5833517096155561
 30
0.0
  0
VERTEX
  5
561
330
550
100
AcDbEntity
  8
PV0001_1
  6
DASHED2
 62
     7
 48
0.2
100
AcDbVertex
100
AcDb2dVertex
 10
289.2077270670227
 20
-0.761034347783891
 30
0.0
  0
VERTEX
  5
562
330
550
100
AcDbEntity
  8
PV0001_1
  6
DASHED2
 62
     7
 48
0.2
100
AcDbVertex
100
AcDb2dVertex
 10
289.3173984213165
 20
-0.9222839853876507
 30
0.0
  0
VERTEX
  5
563
330
550
100
AcDbEntity
  8
PV0001_1
  6
DASHED2
 62
     7
 48
0.2
100
AcDbVertex
100
AcDb2dVertex
 10
289.4420949144651
 20
-1.063407518636551
 30
0.0
  0
VERTEX
  5
564
330
550
100
AcDbEntity
  8
PV0001_1
  6
DASHED2
 62
     7
 48
0.2
100
AcDbVertex
100
AcDb2dVertex
 10
289.5836070699981
 20
-1.187199213277664
 30
0.0
  0
VERTEX
  5
565
330
550
100
AcDbEntity
  8
PV0001_1
  6
DASHED2
 62
     7
 48
0.2
100
AcDbVertex
100
AcDb2dVertex
 10
289.7442380113891
 20
-1.295406677495804
 30
0.0
  0
VERTEX
  5
566
330
550
100
AcDbEntity
  8
PV0001_1
  6
DASHED2
 62
     7
 48
0.2
100
AcDbVertex
100
AcDb2dVertex
 10
289.9205282850555
 20
-1.383551218282547
 30
0.0
  0
VERTEX
  5
567
330
550
100
AcDbEntity
  8
PV0001_1
  6
DASHED2
 62
     7
 48
0.2
100
AcDbVertex
100
AcDb2dVertex
 10
290.1088479681305
 20
-1.447794296514359
 30
0.0
  0
VERTEX
  5
568
330
550
100
AcDbEntity
  8
PV0001_1
  6
DASHED2
 62
     7
 48
0.2
100
AcDbVertex
100
AcDb2dVertex
 10
290.3039554281524
 20
-1.486836530935136
 30
0.0
  0
VERTEX
  5
569
330
550
100
AcDbEntity
  8
PV0001_1
  6
DASHED2
 62
     7
 48
0.2
100
AcDbVertex
100
AcDb2dVertex
 10
290.4999998731901
 20
-1.499999620687332
 30
0.0
  0
SEQEND
  5
56A
330
550
100
AcDbEntity
  8
PV0001_1
  6
DASHED2
 62
     7
 48
0.2
  0
POLYLINE
  5
56B
330
18
100
AcDbEntity
  8
PV0001_1
  6
DASHED2
 62
     7
 48
0.3
100
AcDb2dPolyline
 66
     1
 10
0.0
 20
0.0
 30
0.0
 70
   128
  0
VERTEX
  5
56C
330
56B
100
AcDbEntity
  8
PV0001_1
  6
DASHED2
 62
     7
 48
0.3
100
AcDbVertex
100
AcDb2dVertex
 10
291.1711863203338
 20
1.341457507837445
 30
0.0
  0
VERTEX
  5
56D
330
56B
100
AcDbEntity
  8
PV0001_1
  6
DASHED2
 62
     7
 48
0.3
100
AcDbVertex
100
AcDb2dVertex
 10
291.1689964456846
 20
1.342544696558149
 30
0.0
  0
VERTEX
  5
56E
330
56B
100
AcDbEntity
  8
PV0001_1
  6
DASHED2
 62
     7
 48
0.3
100
AcDbVertex
100
AcDb2dVertex
 10
291.1626199407867
 20
1.345650098550946
 30
0.0
  0
VERTEX
  5
56F
330
56B
100
AcDbEntity
  8
PV0001_1
  6
DASHED2
 62
     7
 48
0.3
100
AcDbVertex
100
AcDb2dVertex
 10
291.1523464842133
 20
1.350538871515425
 30
0.0
  0
VERTEX
  5
570
330
56B
100
AcDbEntity
  8
PV0001_1
  6
DASHED2
 62
     7
 48
0.3
100
AcDbVertex
100
AcDb2dVertex
 10
291.1384645624451
 20
1.356976173151167
 30
0.0
  0
VERTEX
  5
571
330
56B
100
AcDbEntity
  8
PV0001_1
  6
DASHED2
 62
     7
 48
0.3
100
AcDbVertex
100
AcDb2dVertex
 10
291.1212662382416
 20
1.364728353250654
 30
0.0
  0
VERTEX
  5
572
330
56B
100
AcDbEntity
  8
PV0001_1
  6
DASHED2
 62
     7
 48
0.3
100
AcDbVertex
100
AcDb2dVertex
 10
291.1010411901762
 20
1.373559377420575
 30
0.0
  0
VERTEX
  5
573
330
56B
100
AcDbEntity
  8
PV0001_1
  6
DASHED2
 62
     7
 48
0.3
100
AcDbVertex
100
AcDb2dVertex
 10
291.0780767126373
 20
1.383234403360517
 30
0.0
  0
VERTEX
  5
574
330
56B
100
AcDbEntity
  8
PV0001_1
  6
DASHED2
 62
     7
 48
0.3
100
AcDbVertex
100
AcDb2dVertex
 10
291.0526660604764
 20
1.393520972955854
 30
0.0
  0
VERTEX
  5
575
330
56B
100
AcDbEntity
  8
PV0001_1
  6
DASHED2
 62
     7
 48
0.3
100
AcDbVertex
100
AcDb2dVertex
 10
291.0250965280823
 20
1.404181859720381
 30
0.0
  0
VERTEX
  5
576
330
56B
100
AcDbEntity
  8
PV0001_1
  6
DASHED2
 62
     7
 48
0.3
100
AcDbVertex
100
AcDb2dVertex
 10
290.9956577940277
 20
1.414983413446576
 30
0.0
  0
VERTEX
  5
577
330
56B
100
AcDbEntity
  8
PV0001_1
  6
DASHED2
 62
     7
 48
0.3
100
AcDbVertex
100
AcDb2dVertex
 10
290.9646419210722
 20
1.425690791834028
 30
0.0
  0
VERTEX
  5
578
330
56B
100
AcDbEntity
  8
PV0001_1
  6
DASHED2
 62
     7
 48
0.3
100
AcDbVertex
100
AcDb2dVertex
 10
290.932337395697
 20
1.436069152582319
 30
0.0
  0
VERTEX
  5
579
330
56B
100
AcDbEntity
  8
PV0001_1
  6
DASHED2
 62
     7
 48
0.3
100
AcDbVertex
100
AcDb2dVertex
 10
290.8990338964752
 20
1.445884845483931
 30
0.0
  0
VERTEX
  5
57A
330
56B
100
AcDbEntity
  8
PV0001_1
  6
DASHED2
 62
     7
 48
0.3
100
AcDbVertex
100
AcDb2dVertex
 10
290.8650139494232
 20
1.454908988702925
 30
0.0
  0
VERTEX
  5
57B
330
56B
100
AcDbEntity
  8
PV0001_1
  6
DASHED2
 62
     7
 48
0.3
100
AcDbVertex
100
AcDb2dVertex
 10
290.8303264303497
 20
1.463135621774823
 30
0.0
  0
VERTEX
  5
57C
330
56B
100
AcDbEntity
  8
PV0001_1
  6
DASHED2
 62
     7
 48
0.3
100
AcDbVertex
100
AcDb2dVertex
 10
290.7949904127411
 20
1.470604083765181
 30
0.0
  0
VERTEX
  5
57D
330
56B
100
AcDbEntity
  8
PV0001_1
  6
DASHED2
 62
     7
 48
0.3
100
AcDbVertex
100
AcDb2dVertex
 10
290.7590976877502
 20
1.477288148630293
 30
0.0
  0
VERTEX
  5
57E
330
56B
100
AcDbEntity
  8
PV0001_1
  6
DASHED2
 62
     7
 48
0.3
100
AcDbVertex
100
AcDb2dVertex
 10
290.722741238623
 20
1.483162782419355
 30
0.0
  0
VERTEX
  5
57F
330
56B
100
AcDbEntity
  8
PV0001_1
  6
DASHED2
 62
     7
 48
0.3
100
AcDbVertex
100
AcDb2dVertex
 10
290.6860116644196
 20
1.488202355135115
 30
0.0
  0
VERTEX
  5
580
330
56B
100
AcDbEntity
  8
PV0001_1
  6
DASHED2
 62
     7
 48
0.3
100
AcDbVertex
100
AcDb2dVertex
 10
290.6490031404785
 20
1.492382428873213
 30
0.0
  0
VERTEX
  5
581
330
56B
100
AcDbEntity
  8
PV0001_1
  6
DASHED2
 62
     7
 48
0.3
100
AcDbVertex
100
AcDb2dVertex
 10
290.6118050737671
 20
1.495677373636396
 30
0.0
  0
VERTEX
  5
582
330
56B
100
AcDbEntity
  8
PV0001_1
  6
DASHED2
 62
     7
 48
0.3
100
AcDbVertex
100
AcDb2dVertex
 10
290.5745104475311
 20
1.49806215547386
 30
0.0
  0
VERTEX
  5
583
330
56B
100
AcDbEntity
  8
PV0001_1
  6
DASHED2
 62
     7
 48
0.3
100
AcDbVertex
100
AcDb2dVertex
 10
290.5372122450165
 20
1.49951114438835
 30
0.0
  0
VERTEX
  5
584
330
56B
100
AcDbEntity
  8
PV0001_1
  6
DASHED2
 62
     7
 48
0.3
100
AcDbVertex
100
AcDb2dVertex
 10
290.4999998731901
 20
1.499999902475508
 30
0.0
  0
SEQEND
  5
585
330
56B
100
AcDbEntity
  8
PV0001_1
  6
DASHED2
 62
     7
 48
0.3
  0
ARC
  5
586
330
18
100
AcDbEntity
  8
PV0001_1
  6
DASHED2
 62
     7
 48
0.2
100
AcDbCircle
 10
290.5
 20
0.0000000000000568
 30
0.0
 40
1.500000000000003
100
AcDbArc
 50
296.5807021000966
 51
63.41929789990341
  0
LINE
  5
587
330
18
100
AcDbEntity
  8
PV0001_1
 62
     7
 48
0.1
100
AcDbLine
 10
290.5
 20
4.543697618238581
 30
0.0
 11
290.5
 21
-4.543697618238467
 31
0.0
  0
LINE
  5
58E
330
18
100
AcDbEntity
  8
PV0001_1
  6
CENTER
 62
     7
100
AcDbLine
 10
-41.00005722046299
 20
6.237094966081372
 30
0.0
 11
-41.00005722045435
 21
-6.237094966073414
 31
0.0
  0
LINE
  5
58F
330
18
100
AcDbEntity
  8
PV0001_1
  6
CENTER
 48
3.0
100
AcDbLine
 10
-55.01065156281335
 20
0.0
 30
0.0
 11
46.23843805663293
 21
0.0
 31
0.0
  0
CIRCLE
  5
590
330
18
100
AcDbEntity
  8
PV0001_1
 62
     7
100
AcDbCircle
 10
-0.0000572204590128
 20
0.0
 30
0.0
 40
18.0
  0
CIRCLE
  5
598
330
18
100
AcDbEntity
  8
PV0001_1
  6
DASHED2
 62
     7
 48
0.2
100
AcDbCircle
 10
290.5
 20
0.0000000000000568
 30
0.0
 40
1.7
  0
LINE
  5
599
330
18
100
AcDbEntity
  8
PV0001_1
  6
DASHED2
 62
     7
 48
0.3
100
AcDbLine
 10
-50.50005722045867
 20
1.700000000000045
 30
0.0
 11
-48.50005722045867
 21
1.700000000000045
 31
0.0
  0
LINE
  5
59A
330
18
100
AcDbEntity
  8
PV0001_1
  6
DASHED2
 62
     7
 48
0.3
100
AcDbLine
 10
-48.50005722045867
 20
1.700000000000045
 30
0.0
 11
-48.50005722045867
 21
-1.700000000000045
 31
0.0
  0
LINE
  5
59B
330
18
100
AcDbEntity
  8
PV0001_1
  6
DASHED2
 62
     7
 48
0.3
100
AcDbLine
 10
-48.50005722045867
 20
-1.700000000000045
 30
0.0
 11
-50.50005722045867
 21
-1.700000000000045
 31
0.0
  0
ENDSEC
  0
SECTION
  2
OBJECTS
  0
DICTIONARY
  5
C
330
0
100
AcDbDictionary
281
     1
  3
ACAD_COLOR
350
20F
  3
ACAD_GROUP
350
D
  3
ACAD_LAYOUT
350
5E
  3
ACAD_MATERIAL
350
20E
  3
ACAD_MLINESTYLE
350
1B
  3
ACAD_PLOTSETTINGS
350
5F
  3
ACAD_PLOTSTYLENAME
350
5C
  3
ACAD_TABLESTYLE
350
210
  3
ACDBHEADERROUNDTRIPXREC
350
9EB
  3
AcDbVariableDictionary
350
31F
  3
AcmDictionary
350
273
  3
AMG
350
217
  3
AMGSNAPSETTINGS
350
318
  3
SAKAE_DICT
350
1D8
  0
DICTIONARY
  5
207
330
18
100
AcDbDictionary
280
     1
281
     1
  3
ACAD_LAYOUTSELFREF
360
208
  0
DICTIONARY
  5
205
330
15
100
AcDbDictionary
280
     1
281
     1
  3
ACAD_LAYOUTSELFREF
360
206
  0
DICTIONARY
  5
20F
102
{ACAD_REACTORS
330
C
102
}
330
C
100
AcDbDictionary
281
     1
  0
DICTIONARY
  5
D
102
{ACAD_REACTORS
330
C
102
}
330
C
100
AcDbDictionary
281
     1
  0
DICTIONARY
  5
5E
102
{ACAD_REACTORS
330
C
102
}
330
C
100
AcDbDictionary
281
     1
  3
Model
350
60
  3
ﾚｲｱｳﾄ1
350
61
  0
DICTIONARY
  5
20E
102
{ACAD_REACTORS
330
C
102
}
330
C
100
AcDbDictionary
281
     1
  0
DICTIONARY
  5
1B
102
{ACAD_REACTORS
330
C
102
}
330
C
100
AcDbDictionary
281
     1
  3
STANDARD
350
1C
  0
DICTIONARY
  5
5F
102
{ACAD_REACTORS
330
C
102
}
330
C
100
AcDbDictionary
281
     1
  0
ACDBDICTIONARYWDFLT
  5
5C
102
{ACAD_REACTORS
330
C
102
}
330
C
100
AcDbDictionary
281
     1
  3
Normal
350
5D
100
AcDbDictionaryWithDefault
340
5D
1001
ACAD
1000
TREAT_AS_HARD
1070
     0
  0
DICTIONARY
  5
210
102
{ACAD_REACTORS
330
C
102
}
330
C
100
AcDbDictionary
281
     1
  3
Standard
350
211
  0
DICTIONARY
  5
9EB
102
{ACAD_REACTORS
330
C
102
}
330
C
100
AcDbDictionary
281
     1
  0
DICTIONARY
  5
31F
102
{ACAD_REACTORS
330
C
102
}
330
C
100
AcDbDictionary
281
     1
  3
CTABLESTYLE
350
320
  3
DIMASSOC
350
724
  3
PROJECTNAME
350
725
  0
DICTIONARY
  5
273
102
{ACAD_REACTORS
330
C
102
}
330
C
100
AcDbDictionary
281
     1
  3
AcmStdDictionary
350
274
  3
AMDTSECTSYM_ARROWCOLOR
350
716
  0
DICTIONARY
  5
217
102
{ACAD_REACTORS
330
C
102
}
330
C
100
AcDbDictionary
281
     1
  0
DICTIONARY
  5
318
102
{ACAD_REACTORS
330
C
102
}
330
C
100
AcDbDictionary
281
     1
  0
DICTIONARY
  5
1D8
102
{ACAD_REACTORS
330
C
102
}
330
C
100
AcDbDictionary
281
     1
  3
XREC1
350
1D9
  0
XRECORD
  5
208
102
{ACAD_REACTORS
330
207
102
}
330
207
100
AcDbXrecord
280
     1
340
18
  0
XRECORD
  5
206
102
{ACAD_REACTORS
330
205
102
}
330
205
100
AcDbXrecord
280
     1
340
15
  0
LAYOUT
  5
60
102
{ACAD_XDICTIONARY
360
9EC
102
}
102
{ACAD_REACTORS
330
5E
102
}
330
5E
100
AcDbPlotSettings
  1

  2
DocuWide3030.pc3
  4
A4_(297.00_x_210.00_mm)
  6

 40
0.7937499880790711
 41
0.7937499880790711
 42
0.79376220703125
 43
0.7937469482421875
 44
297.0
 45
210.0
 46
0.0
 47
34.97913842830563
 48
0.0
 49
0.0
140
0.0
141
0.0
142
1.0
143
2.000855291687035
 70
 11956
 72
     1
 73
     0
 74
     1
  7
kuroda-monochrome.ctb
 75
     0
147
0.4997862684796374
148
90.04092309154
149
138.5027140946511
100
AcDbLayout
  1
Model
 70
     1
 71
     0
 10
0.0
 20
0.0
 11
12.0
 21
9.0
 12
0.0
 22
0.0
 32
0.0
 14
0.0
 24
0.0
 34
0.0
 15
0.0
 25
0.0
 35
0.0
146
0.0
 13
0.0
 23
0.0
 33
0.0
 16
1.0
 26
0.0
 36
0.0
 17
0.0
 27
1.0
 37
0.0
 76
     0
330
18
1001
ACAD_PSEXT
1000
DocuWide3030.pc3
1000
DocuWide3030
1000
IP_192.30.81.105
1000

1070
     0
  0
LAYOUT
  5
61
102
{ACAD_XDICTIONARY
360
9EE
102
}
102
{ACAD_REACTORS
330
5E
102
}
330
5E
100
AcDbPlotSettings
  1

  2
\\BLUEWAVE2\EPSON LP-9200SX
  4

  6

 40
0.0
 41
0.0
 42
0.0
 43
0.0
 44
0.0
 45
0.0
 46
0.0
 47
0.0
 48
0.0
 49
0.0
140
0.0
141
0.0
142
1.0
143
1.0
 70
   688
 72
     0
 73
     0
 74
     5
  7
kuroda-monochrome.ctb
 75
    16
147
1.0
148
0.0
149
0.0
100
AcDbLayout
  1
ﾚｲｱｳﾄ1
 70
     1
 71
     1
 10
0.0
 20
0.0
 11
420.0
 21
297.0
 12
0.0
 22
0.0
 32
0.0
 14
1.000000000000000E+20
 24
1.000000000000000E+20
 34
1.000000000000000E+20
 15
-1.000000000000000E+20
 25
-1.000000000000000E+20
 35
-1.000000000000000E+20
146
0.0
 13
0.0
 23
0.0
 33
0.0
 16
1.0
 26
0.0
 36
0.0
 17
0.0
 27
1.0
 37
0.0
 76
     0
330
15
  0
MLINESTYLE
  5
1C
102
{ACAD_REACTORS
330
1B
102
}
330
1B
100
AcDbMlineStyle
  2
STANDARD
 70
     0
  3

 62
   256
 51
90.0
 52
90.0
 71
     2
 49
0.5
 62
   256
  6
BYLAYER
 49
-0.5
 62
   256
  6
BYLAYER
  0
ACDBPLACEHOLDER
  5
5D
102
{ACAD_REACTORS
330
5C
102
}
330
5C
  0
TABLESTYLE
  5
211
102
{ACAD_REACTORS
330
210
102
}
330
210
100
AcDbTableStyle
  3
Standard
 70
     0
 71
     0
 40
1.5
 41
1.5
280
     0
281
     0
  7
STANDARD
140
4.5
170
     2
 62
     0
 63
     7
283
     0
274
    -2
284
     1
 64
     0
275
    -2
285
     1
 65
     0
276
    -2
286
     1
 66
     0
277
    -2
287
     1
 67
     0
278
    -2
288
     1
 68
     0
279
    -2
289
     1
 69
     0
  7
STANDARD
140
6.0
170
     5
 62
     0
 63
     7
283
     0
274
    -2
284
     1
 64
     0
275
    -2
285
     1
 65
     0
276
    -2
286
     1
 66
     0
277
    -2
287
     1
 67
     0
278
    -2
288
     1
 68
     0
279
    -2
289
     1
 69
     0
  7
STANDARD
140
4.5
170
     5
 62
     0
 63
     7
283
     0
274
    -2
284
     1
 64
     0
275
    -2
285
     1
 65
     0
276
    -2
286
     1
 66
     0
277
    -2
287
     1
 67
     0
278
    -2
288
     1
 68
     0
279
    -2
289
     1
 69
     0
  0
DICTIONARYVAR
  5
320
102
{ACAD_REACTORS
330
31F
102
}
330
31F
100
DictionaryVariables
280
     0
  1
STANDARD
  0
DICTIONARYVAR
  5
724
102
{ACAD_REACTORS
330
31F
102
}
330
31F
100
DictionaryVariables
280
     0
  1
1
  0
DICTIONARYVAR
  5
725
102
{ACAD_REACTORS
330
31F
102
}
330
31F
100
DictionaryVariables
280
     0
  1

  0
DICTIONARY
  5
274
102
{ACAD_REACTORS
330
273
102
}
330
273
100
AcDbDictionary
281
     1
  0
XRECORD
  5
716
102
{ACAD_REACTORS
330
273
102
}
330
273
100
AcDbXrecord
280
     1
 90
-1023410169
  0
XRECORD
  5
1D9
102
{ACAD_REACTORS
330
1D8
102
}
330
1D8
100
AcDbXrecord
280
     1
  1
PV
 40
1.0
 50
0.0
 51
0.0
 52
0.0
 53
0.0
  0
DICTIONARY
  5
9EC
330
60
100
AcDbDictionary
280
     1
281
     1
  3
ACAD_XREC_ROUNDTRIP
360
9ED
  0
DICTIONARY
  5
9EE
330
61
100
AcDbDictionary
280
     1
281
     1
  3
ACAD_XREC_ROUNDTRIP
360
9EF
  0
XRECORD
  5
9ED
102
{ACAD_REACTORS
330
9EC
102
}
330
9EC
100
AcDbXrecord
280
     1
102
SHADEPLOT
 70
     0
102
SHADEPLOTRESLEVEL
 70
     2
102
SHADEPLOTCUSTOMDPI
 70
   300
  0
XRECORD
  5
9EF
102
{ACAD_REACTORS
330
9EE
102
}
330
9EE
100
AcDbXrecord
280
     1
102
SHADEPLOT
 70
     0
102
SHADEPLOTRESLEVEL
 70
     2
102
SHADEPLOTCUSTOMDPI
 70
   300
  0
ENDSEC
  0
EOF
